Marilyn Manson - The Fight Song Chords & Tabs

 

The Fight Song Chords & Tabs

Marilyn Manson Chords & Tabs

Version: 6 Type: Tab

The Fight Song Tab

   Hey this is my first tab and i think its all correct. This song is really good and 
so have fun.

  ---5---------  ---------------|
  ---5---------  ---------------|
  -------------  ---------------|
  -------------  ---------------|
  -4---4---7-7-  4-4-----4-7-7--|
  -------7-----  ----7-7--------|


  ---------------    ---------------|
  ---------------    ---------------|
  ---------------    ---------------|
  -4-4-2-2-4-7-7- x3 -4-4-2-2-4-2-2-|x1    play 2 times
  -4-4-2-2-4-7-7-    -4-4-2-2-4-2-2-|
  -2-2-0-0-2-5-5-    -2-2-0-0-2-0-0-|


  ---5---------  ---------------|
  ---5---------  ---------------|
  -------------  ---------------|
  -------------  ---------------|
  -4---4---7-7-  4-4-----4-7-7--|
  -------7-----  ----7-7--------|
                                   x3
  ---5---------  ---------------|
  ---5---------  ---------------|
  -------------  ---------------|
  -------------  ---------------|
  -4---4---7-7-  4-4-----4------|
  -------7-----  ----7-7---7-7--|

  ---------------    ---------------|
  ---------------    ---------------|
  ---------------    ---------------|
  -4-4-2-2-4-7-7- x3 -4-4-2-2-4-2-2-|x1    play 2 times
  -4-4-2-2-4-7-7-    -4-4-2-2-4-2-2-|
  -2-2-0-0-2-5-5-    -2-2-0-0-2-0-0-|

  -------------------------------|
  -------------------------------|
  -------------------------------|
  -9-9-9-9-9-9-9-9-7-7-7-7-7-7-7-| x2
  -9-9-9-9-9-9-9-9-7-7-7-7-7-7-7-|
  -7-7-7-7-7-7-7-7-5-5-5-5-5-5-5-|

  -----------------------------------------|
  -----------------------------------------|
  -----------------------------------------|
  -12-12-12-12-12-12-12-12-9-9-9-9-9-9-9-9-| x2
  -12-12-12-12-12-12-12-12-9-9-9-9-9-9-9-9-|
  -10-10-10-10-10-10-10-10-7-7-7-7-7-7-7-7-|

[ Tab from: http://www.guitartabs.cc/tabs/m/marilyn_manson/the_fight_song_tab_ver_6.html ]
  ---------------    ---------------|
  ---------------    ---------------|
  ---------------    ---------------|
  -4-4-2-2-4-7-7- x3 -4-4-2-2-4-2-2-|x1    play 2 times
  -4-4-2-2-4-7-7-    -4-4-2-2-4-2-2-|
  -2-2-0-0-2-5-5-    -2-2-0-0-2-0-0-|


  ---5---------  ---------------|
  ---5---------  ---------------|
  -------------  ---------------|
  -------------  ---------------|
  -4---4---7-7-  4-4-----4-7-7--|
  -------7-----  ----7-7--------|
                                   x2
  ---5---------  ---------------|
  ---5---------  ---------------|
  -------------  ---------------|
  -------------  ---------------|
  -4---4---7-7-  4-4-----4------|
  -------7-----  ----7-7---7-7--|

  -------------------------------|
  -------------------------------|
  -------------------------------|
  -9-9-9-9-9-9-9-9-7-7-7-7-7-7-7-| x2
  -9-9-9-9-9-9-9-9-7-7-7-7-7-7-7-|
  -7-7-7-7-7-7-7-7-5-5-5-5-5-5-5-|

  -----------------------------------------|
  -----------------------------------------|
  -----------------------------------------|
  -12-12-12-12-12-12-12-12-9-9-9-9-9-9-9-9-| x2
  -12-12-12-12-12-12-12-12-9-9-9-9-9-9-9-9-|
  -10-10-10-10-10-10-10-10-7-7-7-7-7-7-7-7-|


  ---------------    ---------------|
  ---------------    ---------------|
  ---------------    ---------------|
  -4-4-2-2-4-7-7- x3 -4-4-2-2-4-2-2-|x1    play 2 times
  -4-4-2-2-4-7-7-    -4-4-2-2-4-2-2-|
  -2-2-0-0-2-5-5-    -2-2-0-0-2-0-0-|

  --------------------------------|
  --------------------------------|
  --------------------------------|
  -9-9-9-9-9-9-9-9-12-12-12-7-7-7-| x4
  -9-9-9-9-9-9-9-9-12-12-12-7-7-7-|
  -7-7-7-7-7-7-7-7-10-10-10-5-5-5-|

  ---------------    ---------------|
  ---------------    ---------------|
  ---------------    ---------------|
  -4-4-2-2-4-7-7- x3 -4-4-2-2-4-2-2-|x1    play 5 times
  -4-4-2-2-4-7-7-    -4-4-2-2-4-2-2-|
  -2-2-0-0-2-5-5-    -2-2-0-0-2-0-0-|

  mikey lince