Marilyn Manson - The Fight Song Chords & Tabs

 

The Fight Song Chords & Tabs

Marilyn Manson Chords & Tabs

Version: 2 Type: Tab 0 ratings
1 star 2 stars 3 stars 4 stars 5 stars
comments

The Fight Song Tab

Marilyn Manson - The Fight Song
From Total Guitar - so is %100 correct.

Intro W/light distortion (also used in verses)
----------------------------------------------------------------
--------------------------------xxx-----------------------------
--------------------------------xxx-----------------------------
----11--11----------11--14--14--xxx-----------------------------
----9---9-----------9---12--12----------------------------------
------------0---0-----------------------------------------------

----------------------------------------------------------------
--------------------------------xxx-----------------------------
--------------------------------xxx-----------------------------
----11--11----------11--14--14--xxx-----------------------------
----9---9-----------9---12--12----------------------------------
------------0---0-----------------------------------------------

Intro Cont'd (Also used in Chorus)

-----------------------1/4-b------------------------------------
------------------------/---------------------------------------
-----------------------/----------------------------------------
--4--4--2--2--4--7----7-----------------------------------------
--4--4--2--2--4--7----7-----------------------------------------
--2--2--0--0--2--5----5-----------------------------------------
[ Tab from: http://www.guitartabs.cc/tabs/m/marilyn_manson/the_fight_song_tab_ver_2.html ]
-----------------------1/4-b------------------------------------
------------------------/---------------------------------------
-----------------------/----------------------------------------
--4--4--2--2--4--7----7-----------------------------------------
--4--4--2--2--4--7----7-----------------------------------------
--2--2--0--0--2--5----5-----------------------------------------

-----------------------1/4-b------------------------------------
------------------------/---------------------------------------
-----------------------/----------------------------------------
--4--4--2--2--4--7----7-----------------------------------------
--4--4--2--2--4--7----7-----------------------------------------
--2--2--0--0--2--5----5-----------------------------------------

----------------------------------------------------------------
----------------------------------------------------------------
----------------------------------------------------------------
--4--4--2--2--4--2--2--2----------------------------------------
--4--4--2--2--4--2--2--2----------------------------------------
--2--2--0--0--2--0--0--0----------------------------------------

Pre-Chorus Lead

-----5-----5-----5-----5-----------------5------5---5-----------
--7(10)--(10)--(10)--(10)---(7)---7---7(10)--7(10)----7(10)-7~~~
----------------------------------------------------------------
----------------------------------------------------------------
----------------------------------------------------------------
----------------------------------------------------------------

----------------------------------------------------------------
-----7-----7-----7-----7---------7------7------7---7-----7------
--9(11)--(11)--(11)--(11)--9--9(11)--9(11)--9(11)--11--(11)--9~~
----------------------------------------------------------------
----------------------------------------------------------------
----------------------------------------------------------------

Comments and hatemail to - Clangerfreak@hotmail.com

~*jinxx*~
Comments