Marilyn Manson - The Fight Song Chords & Tabs

 

The Fight Song Chords & Tabs

Marilyn Manson Chords & Tabs

Version: 1 Type: Tab 0 ratings
1 star 2 stars 3 stars 4 stars 5 stars
comments

The Fight Song Tab

This Is a pretty easy song but fun to play!!!!!!
Tabbed by THE WARLOCK

Intro/Verse

E---2-xx55---2-xx55
B---2-xx55---2-xx55
G-----xx66-----xx66
D-----xx77-----xx77
A-----xx77-----xx77
E--2--xx55--2--xx55

Intro/Chorus
E---------------------------------------------------------
B---------------------------------------------------------
G---------------------------------------------------------
D--44-22-4-7---44-22-4-7---44-22-4-7---44-22-4-2----------
A--44-22-4-7---44-22-4-7---44-22-4-7---44-22-4-2----------
E--22-00-2-5---22-00-2-5---22-00-2-5---22-00-2-0----------
   Im not a slave....

[ Tab from: http://www.guitartabs.cc/tabs/m/marilyn_manson/the_fight_song_tab.html ]
After Chorus
E---------------------------------------------------------
B---------------------------------------------------------
G---------------------------------------------------------
D--77777--44444--77777--44444--99999--66666--77777--44444
A--77777--44444--77777--44444--99999--66666--77777--44444
E--55555--22222--55555--22222--77777--44444--55555--22222

Play Chorus When He screams fight.

Verse

Then The Thing That was Played After The Chorus

Bridge

E-----------------------------------------------------------
B-----------------------------------------------------------
G-----------------------------------------------------------
D--777777-9-4444-777777-9-4444-777777-9-4444-777777-9-4444-7
A--777777-9-4444-777777-9-4444-777777-9-4444-777777-9-4444-7
E--555555-7-2222-555555-7-2222-555555-7-2222-555555-7-2222-5

 Chorus
Thats It!!!!!!!!!!! Have fun playing this
Comments