Marilyn Manson - The Fight Song Chords & Tabs

 

The Fight Song Chords & Tabs

Marilyn Manson Chords & Tabs

Version: 4 Type: Bass Tab 0 ratings
1 star 2 stars 3 stars 4 stars 5 stars
comments

The Fight Song Bass Tab

  Tabbed by: Big Bassman
  This is the exact tabs i have the official tabs
  Standard tuning{EADG}
  All notes Eighth notes
  
  
  Riff 1
  ----------------
  ----------------
  ----------0-0-0-
  2-2-0-0-2------- 
  
  Riff 2
  ----------------
  ----------------
  ----------------
  2-2-0-0-2-0-0-0-

  Riff 3 
  ----------------------------------------------------------------
  ----------------------------------------------------------------
  2-2-2-2-2-2-2-2-0-0-0-0-0-0-0-0-2-2-2-2-2-2-2-2-0-0-0-0-0-0-0-0-
  ----------------------------------------------------------------

  ----------------------------------------------------------------
  0-0-0-0-0-0-0-0-------------------------------------------------
  ----------------2-2-2-2-2-2-2-2-0-0-0-0-0-0-0-0-----------------
  ------------------------------------------------0-0-0-0-0-0-1-1-
[ Tab from: http://www.guitartabs.cc/tabs/m/marilyn_manson/the_fight_song_btab_ver_4.html ]
  Riff 4
  ----------------------------------------------------------------
  ----------------------------------------------------------------
  2-2-2-2-2-2-2-2-0-0-0-0-0-0-0-0-2-2-2-2-2-2-2-2-0-0-0-0-0-0-0-0-
  ----------------------------------------------------------------
  
  ----------------------------------------------------------------
  ----------------------------------------------------------------
  5-5-5-5-5-5-5-5-2-2-2-2-2-2-2-2-0-0-0-0-0-0-0-0-----------------
  ------------------------------------------------0-0-0-0-0-0-1-1-

  Riff 5
  ------------------------------------------------------------------
  ------------------------------------------------------------------
  3-3-3-3-3-3-3-/5-5\-0-0-0-0-0-0-0-3-3-3-3-3-3-3-3-0-0-0-0-0-0-0-0-
  ------------------------------------------------------------------

  -----------------------------------------------------------------
  -----------------------------------------------------------------
  3-3-3-3-3-3-3-3-5\-0-0-0-0-0-0-0-3-3-3-3-3-3-3-3-0-0-0-0-2-2-2-2-
  -----------------------------------------------------------------

  timeline

  Rest 2 bars
  Riff 1 x3
  Riff 2 x1
  Riff 1 x3
  Riff 2 x1
  Rest 12 bars
  Riff 1 x3
  Riff 2 x1
  Riff 1 x3
  Riff 2 x1
  Riff 3 x1
  Riff 1 x3
  Riff 2 x1
  Rest 8 bars
  Riff 4 x1
  Riff 1 x3
  Riff 2 x1
  Riff 5 x1
  Riff 1 x3
  Riff 2 x1
  Riff 1 x3
  Riff 2 x1
  Riff 1 x3
  Riff 2 x1
  Riff 1 x3
  Riff 2 x1
  Rest 1 bar
  End
Comments