Marilyn Manson - The Fight Song Chords & Tabs

 

The Fight Song Chords & Tabs

Marilyn Manson Chords & Tabs

Version: 3 Type: Bass Tab 0 ratings
1 star 2 stars 3 stars 4 stars 5 stars
comments

The Fight Song Bass Tab

The Fight Song - Marilyn Manson

By: Jon Craven (i_apathy@hotmail.com)
For questions, comments, feedback, an outline of the timing, write the above
address.

Notes:
  -Played with a pick.
  -The tempo seems between 130 and 131 bpm; using a metrinome, you'll notice
it seems off.

(4/4)(131 bpm)
Standard tuning

/ - slide up

Chorus (outro): (x2)(0:04)
|----------------|----------------|----------------|----------------|
|----------------|----------------|----------------|----------------|
|----------------|----------------|----------------|----------------|
|2-2-0-0-2/5-5-5-|2-2-0-0-2/5-5-5-|2-2-0-0-2/5-5-5-|2-2-0-0-2-0-0-0-|

Rest for twelve measures
Chorus (x2)

Bridge 1: (0:55)
|----------------|----------------|----------------|----------------|
|----------------|----------------|----------------|----------------|
|----------------|----------------|----------------|----------------|
|7-7-7-7-7-7-7-7-|5-5-5-5-5-5-5-5-|7-7-7-7-7-7-7-7-|5-5-5-5-5-5-5-5-|
[ Tab from: http://www.guitartabs.cc/tabs/m/marilyn_manson/the_fight_song_btab_ver_3.html ]
|------------------------|----------------|----------------|----------------|
|------------------------|----------------|----------------|----------------|
|------------------------|----------------|----------------|----------------|
|10-10-10-10-10-10-10-10-|7-7-7-7-7-7-7-7-|5-5-5-5-5-5-5-5-|0-0-0-0-0-0-0-0-|

Chorus
Rest for eight measures
Bridge 1
Chorus (x2)

Bridge 2: (2:02)
|----------------|-----------------|----------------|-----------------|
|----------------|-----------------|----------------|-----------------|
|----------------|-----------------|----------------|-----------------|
|8-8-8-8-8-8-8-8-|10---5-5-5-5-5-5-|8-8-8-8-8-8-8-8-|10---5-5-5-5-5-5-|

|----------------|-----------------|----------------|-----------------|
|----------------|-----------------|----------------|-----------------|
|----------------|-----------------|----------------|-----------------|
|8-8-8-8-8-8-8-8-|10---5-5-5-5-5-5-|8-8-8-8-8-8-8-8-|10---5-5-5-7-7-7-|

Chorus (x4)
Outro
Rest till end
Comments