Marilyn Manson - The Fall Of Adam Chords & Tabs

 

The Fall Of Adam Chords & Tabs

Marilyn Manson Chords & Tabs

Version: 1 Type: Tab 0 ratings
1 star 2 stars 3 stars 4 stars 5 stars
comments

The Fall Of Adam Tab

   
          Tabbed by : julian015@hotmail.com
          Artist    : Marilyn Manson
          Album     : Holy Wood (In The Shadow Of The Valley Of Death)
          Song      : Track #17 - The Fall of Adam
          
          Tuning: Standard (EADGBE)
          
          Key
          
          . = palm mute any notes with a . underneath
          
          Intro : (you work out the strumming pattern, these are just 
          the chord formations)
          
             Fmin   Fm/D#  Fm/D   C#maj7 (Fm/C#)
          E|-1------1------1------1------|
          B|-1------1------1------1------|
          G|-1------1------1------1------|
          D|-3------1------0------3------|
          A|----------------------4------|
          E|-----------------------------|
          
          Synth transcribed for guitar #1 (distorted) : 
          
          G|---------------------------|
          D|---10---11---10------8-----|
          A|-8----8----------8-9---9-8-|
          E|---------------------------|
          
          Distorted guitar #2 : (rhythm)
          
          G|---------------------------------|
          D|-3-3-3-3-3-3-3-3-4-4-4-3-3-3-3-3-|
          A|-3-3-3-3-3-3-3-3-4-4-4-3-3-3-3-3-|
          E|-1-1-1-1-1-1-1-1-2-2-2-1-1-1-1-1-|
          pm . . . . . . . . . . . . . . . .
[ Tab from: http://www.guitartabs.cc/tabs/m/marilyn_manson/the_fall_of_adam_tab.html ]
Comments