Marilyn Manson - The Dope Show Chords & Tabs

 

The Dope Show Chords & Tabs

Marilyn Manson Chords & Tabs

Version: 4 Type: Tab 0 ratings
1 star 2 stars 3 stars 4 stars 5 stars
comments

The Dope Show Tab

Hey, this is my first song that I have attempted to tab. Me and my friend tabbed this
together. So thanks to Dave Stacey! He's been playing guitar for over 15 years. But
it's pretty easy if you ask me and I just started playing guitar a month or two
ago...lol. Um, just use distortion through the whole song. Good Luck. If you have any
questions or 
then add me on MSN x_dark_one_x@hotmail.com or something.

INTRO(8x)
e|----------------------------------------------------------------------------|
B|----------------------------------------------------------------------------|
G|----------------------------------------------------------------------------|
D|----------------------------------------------------------------------------|
A|----------------------------------------------------------------------------|
E|-0-0-0-0-3-0-10-10-8-8-8-8-8------------------------------------------------|
[ Tab from: http://www.guitartabs.cc/tabs/m/marilyn_manson/the_dope_show_tab_ver_4.html ]
CHORUS(2x)
e|---------------------------------------------------------------------------|
B|---------------------------------------------------------------------------|
G|---------------------------------------------------------------------------|
D|---------------------------------------------------------------------------|
A|-7-7-7-7-7-7-7-7-10-10-10-10-10-10-10-10-5-5-5-5-5-5-5-5-3-3-3-3-3-3-3-----|
E|---------------------------------------------------------------------------|

INTRO(2x)

VERSE
e|---------------------------------------------------------------------------|
B|---------------------------------------------------------------------------|
G|---------------------------------------------------------------------------|
D|---------------------------------------------------------------------------|
A|------------5-5--------------5-5-------------5-5-----5-5-3-3-1-1-----------|
E|0-0-3-3-5-5-----0-0-3-3-5-5-----0-0-3-3-5-5-----0-0------------------------|
|

INTRO(4x)
CHORUS(2x)
INTRO(2x)
VERSE
CHORUS(2x)
INTRO(4x)
Comments