Marilyn Manson - The Dope Show Chords & Tabs

 

The Dope Show Chords & Tabs

Marilyn Manson Chords & Tabs

Version: 2 Type: Tab 0 ratings
1 star 2 stars 3 stars 4 stars 5 stars
comments

The Dope Show Tab

   
This is my first TAB!! :D

Listen to the album for the Rythm

dropped D
D|A|D|g|b|e

INTRO

e|----18----19-|----18----19-|
b|-------------|-------------|
g|-------------|-------------|
D|-------------|-------------|
A|-------------|-------------|
D|-------------|-------------|

RIFF 1

e|-------------------------|
b|-------------------------|
g|-------------------------|
D|-0--0--0-0-3-0---0-4-3---|
A|-0--0--0-0-3-0---0-4-3---|
D|-0--0--0-0-3-0---0-4-3---|

RIFF 2
[ Tab from: http://www.guitartabs.cc/tabs/m/marilyn_manson/the_dope_show_tab_ver_2.html ]
e|------------------------------------------|
b|------------------------------------------|
g|------------------------------------------|
D|-0-7---9---0-8---6---0-7---9---0-8(10)--7-|
A|-0-7---9---0-8---6---0-7---9---0-8(10)--7-|
D|-0-7---9---0-8---6---0-7---9---0-8(10)--7-|

RIFF 3

e|---------------|
b|---------------|
g|---------------|
D|-9---7---9---7-|
A|-9---7---9---7-|
D|-9---7---9---7-|

RIFF 4

e|------------|
b|------------|
g|------------|
D|-9--7--5--7-|
A|-9--7--5--7-|
D|-9--7--5--7-|




ORDER:

INTRO    x1
RIFF 1   x8
RIFF 2   x1
RIFF 1   x2
RIFF 3   x4
When you played RIFF3 x3, play RIFF4
RIFF 1   x4
RIFF 2   x1
RIFF 1   x2
RIFF 3   x4
RIFF 2   x1
RIFF 1   x4
Comments