Marilyn Manson - The Death Song Chords & Tabs

 

The Death Song Chords & Tabs

Marilyn Manson Chords & Tabs

Version: 3 Type: Bass Tab 0 ratings
1 star 2 stars 3 stars 4 stars 5 stars
comments

The Death Song Bass Tab

The Death Song - Marilyn Manson

By: Jon Craven (i_apathy@hotmail.com)
For questions, comments, feedback, an outline of the timing, write the above
address.

Note:
  -Played with a pick.

(4/4)(110 bpm)
Standard tuning

* - note held for an eighth beat

Intro (verse): (x2)(synth bass)
|----------------|----------------|
|----------------|----------------|
|7777777777777777|5555555555558888|
|----------------|----------------|

Verse (x4)

Pre-chorus: (x2)(0:26)(synth bass)
|----------------|----------------|
|----------------|----------------|
|3333333333333333|5555555555555555|
|----------------|----------------|

Chorus (outro pt.1): (0:35)
|----------------|----------------|----------------|----------------|
|----------------|----------------|----------------|----------------|
|7-7-7-7-7-7-7-7-|5-5-5-5-5-5-5-5-|7-7-7-7-7-7-7-7-|5-5-5-5-5-5-5-5-|
|----------------|----------------|----------------|----------------|

|----------------|----------------|----------------|----------------|
|----------------|----------------|----------------|----------------|
|3-3-3-3-3-3-3-3-|5-5-5-5-5-5-5-5-|3-3-3-3-3-3-3-3-|5-5-5-5-5-5-5-5-|
|----------------|----------------|----------------|----------------|
[ Tab from: http://www.guitartabs.cc/tabs/m/marilyn_manson/the_death_song_btab_ver_3.html ]
Fill 1 (outro pt.2): (0:52)
|----------------|
|----------------|
|7-*-*-*-*-*-*-*-|
|----------------|

Rest for two measures
Verse (x4)
Pre-chorus (x2)
Chorus

Bridge: (x2)(1:40)
|----------------|----------------|----------------|----------------|
|5-5-5-5-5-5-5-5-|4-4-4-4-4-4-4-4-|----------------|----------------|
|----------------|----------------|5-7-7-7---5-7-5-|5-7-7-7---5-7-5-|
|----------------|----------------|----------------|----------------|

Interlude: (1:57)(synth bass)
|---|---|---|---|----------------|----------------|----------------|
|---|---|---|---|----------------|----------------|----------------|
|-R-|-R-|-R-|-R-|7777777777777777|5555555555558888|7777777777777777|
|---|---|---|---|----------------|----------------|----------------|

|----------------|----------------|----------------|----------------|---|
|----------------|----------------|----------------|----------------|---|
|5555555555558888|3333333333333333|5555555555555555|3333333333333333|-R-|
|----------------|----------------|----------------|----------------|---|

Chorus

Fill 2: (2:41)
|----------------|----------------|
|5-5-5-5-5-5-5-5-|4-4-4-4-4-4-4-4-|
|----------------|----------------|
|----------------|----------------|

Outro pt.1 (x2)
Outro pt.2
Rest till end
Comments