Marilyn Manson - The Beautiful People(correct Version) Chords & Tabs

 

The Beautiful People(correct Version) Chords & Tabs

Marilyn Manson Chords & Tabs

Version: 1 Type: Tab 2 ratings
1 star 2 stars 3 stars 4 stars 5 stars
comments

The Beautiful People(correct Version) Tab

   
This is my first tab ok but its right 
So if there's any problems relax and please don't be mad, by the way the 
song is very easy to play 

Drop D tuning

D,A,D,G,B,E.

Use heavy distortion through the whole song.

_= slide up to  x= palm mute

The intro of the song go something like this, strums up and down for the mute part


E-----------------------------------------------------------
B-----------------------------------------------------------
G-----------------------------------------------------------
D--xxxxx--xxxxx--xxxxx--xxxxx--xxxxx--xxxxx--xxxxx--xxxxx---
A--xxxxx--xxxxx--xxxxx--xxxxx--xxxxx--xxxxx--xxxxx--xxxxx---
D--xxxxx--xxxxx--xxxxx--xxxxx--xxxxx--xxxxx--xxxxx--xxxxx---


Then after that you play this.

E------------------------------------------
B------------------------------------------
G------------------------------------------
D---0--3-0-------0--3-0-------0--3-0-------
A---0--3-0-------0--3-0-------0--3-0-------
D---0--3-0-------0--3-0-------0--3-0-------

E-----------------------------------------------------------------
B-----------------------------------------------------------------
G-----------------------------------------------------------------
D---0--3-0------0--6--0--6--0----0--6--0--6--0--------------------
A---0--3-0------0--6--0--6--0----0--6--0--6--0--------------------
D---0--3-0------0--6--0--6--0----0--6--0--6--0---Play this 4x-----

Bridge

E-----------------------------------------------------------------
B-----------------------------------------------------------------
G-----7--7--7--7------6--6--6--6-----5--5--5--5------4--4--4--4__14---
D-----------------------------------------------------------------
A-----5--5--5--5------4--4--4--4-----3--3--3--3------2--2--2--2__12---
D-----------------------------------------------------------------
 Repeat 2x



Chorus

E-----------------------------------------------------------
B-----------------------------------------------------------
G-----------------------------------------------------------
D--0--6-0-6-0-----0--6-0-6-0-----0--3-0---------------------
A--0--6-0-6-0-----0--6-0-6-0-----0--3-0---------Repeat 4x---
D--0--6-0-6-0-----0--6-0-6-0-----0--3-0---------------------


Then after that you play this, It'll help if you strums up and down for the 
mute parts

E--------------------------------------------------
B--------------------------------------------------
G--------------------------------------------------
D---xxxx-3p0------xxxx--3--0-----------------------
A---xxxx-3p0--or--xxxx--3--0--------Repeat 7x------
D---xxxx-3p0------xxxx--3--0-----------------------
[ Tab from: http://www.guitartabs.cc/tabs/m/marilyn_manson/the_beautiful_peoplecorrect_version_tab.html ]
E-------------------------------------------------------------
B-------------------------------------------------------------
G-------------------------------------------------------------
D--0--6-0-6-0-----0--6-0-6-0-----0--3-0-----------------------
A--0--6-0-6-0-----0--6-0-6-0-----0--3-0---------Repeat 4x-----
D--0--6-0-6-0-----0--6-0-6-0-----0--3-0-----------------------

Brigde 2

E----------------------------------------------------------------
B----------------------------------------------------------------
G-----7--7--7--7------6--6--6--6-----5--5--5--5------4--4--4--4___14--
D----------------------------------------------------------------
A-----5--5--5--5------4--4--4--4-----3--3--3--3------2--2--2--2___12--
D----------------------------------------------------------------
 Repeat 2x


E-----------------------------------------------------------
B-----------------------------------------------------------
G-----------------------------------------------------------
D--0--6-0-6-0-----0--6-0-6-0-----0--3-0---------------------
A--0--6-0-6-0-----0--6-0-6-0-----0--3-0---------Repeat 4x---
D--0--6-0-6-0-----0--6-0-6-0-----0--3-0---------------------


E-------------------------------------------------
B-------------------------------------------------
G-------------------------------------------------
D---xxxx-3p0------xxxx--3--0----------------------
A---xxxx-3p0--or--xxxx--3--0--------Repeat 3x-----
D---xxxx-3p0------xxxx--3--0----------------------


E------------------------------------------------------------
B------------------------------------------------------------
G------------------------------------------------------------
D--0--6-0-6-0-----0--6-0-6-0-----0--3-0----------------------
A--0--6-0-6-0-----0--6-0-6-0-----0--3-0---------Repeat 4x----
D--0--6-0-6-0-----0--6-0-6-0-----0--3-0----------------------

This part a little different, listen to the song carefully and you should  
be able to hear it

E-----------------------------------------------
B-----------------------------------------------
G-----------------------------------------------
D--0--6-0-6-0-----0--6-0-6-0-----0--3-0---------
A--0--6-0-6-0-----0--6-0-6-0-----0--3-0---------
D--0--6-0-6-0-----0--6-0-6-0-----0--3-0---------

E--------------------------------------------------
B--------------------------------------------------
G--------------------------------------------------
D--0--6-0-6-0----0--6-0-6-0-6-5-3-0----------------
A--0--6-0-6-0----0--6-0-6-0-6-5-3-0----Repeat 2x---
D--0--6-0-6-0----0--6-0-6-0-6-5-3-0----------------

Then after that part just keep playing this part until the end of the song


E---------------------------------------------------
B---------------------------------------------------
G---------------------------------------------------
D--0--6-0-6-0----0--6-0-6-0-6-5-3-0-----------------
A--0--6-0-6-0----0--6-0-6-0-6-5-3-0----Repeat 4x----
D--0--6-0-6-0----0--6-0-6-0-6-5-3-0-----------------


See nothing hard so have fun and enjoy the song, if you see any mistakes or have 
any questions or comments please email me at remzunityshima@yahoo.com
Comments