Marilyn Manson - The Beautiful People Chords & Tabs

 

The Beautiful People Chords & Tabs

Marilyn Manson Chords & Tabs

Version: 1 Type: Tab 2 ratings
1 star 2 stars 3 stars 4 stars 5 stars
comments

The Beautiful People Tab

  Marilyn Manson   
The Beautiful People
Tabbed By VoodooChild076
Standard Tuning

Intro with Drums
D--x-xxxx-x-xxxx-x-xxxx-x-xxxx-x-xxxx-x-xxxx-x-xxxx-x-xxxx
A--x-xxxx-x-xxxx-x-xxxx-x-xxxx-x-xxxx-x-xxxx-x-xxxx-x-xxxx
e--x-xxxx-x-xxxx-x-xxxx-x-xxxx-x-xxxx-x-xxxx-x-xxxx-x-xxxx

2nd Intro
D--0-3-0------0-3-0------0-3-0------
A--0-3-0------0-3-0------0-3-0------
e--0-3-0------0-3-0------0-3-0------

4x
D--0-3-0--0-5-0-5-0--0-5-0-5-0
A--0-3-0--0-5-0-5-0--0-5-0-5-0
e--0-3-0--0-5-0-5-0--0-5-0-5-0

Verse (only on e,A,D) start when he says when he says 
“the beautiful people,the beautiful people”
D--x--x-x-x-x--x-x
A--x--x-x-x-x--x-x
e--x--x-x-x-x--x-x
[ Tab from: http://www.guitartabs.cc/tabs/m/marilyn_manson/the_beautiful_people_tab.html ]
D--x--x-x-x-x---x--x-x-x-x--x-x
A--x--x-x-x-x---x--x-x-x-x--x-x
e--x--x-x-x-x---x--x-x-x-x--x-x

Right before choruse when he says
“Theres a time to descriminate....”
G--7--7-7-7---6--6-6-6---5--5-5-5---4--4-4-4
D--x--x-x-x---x--x-x-x---x--x-x-x---x--x-x-x
A--5--5-5-5---4--4-4-4---3--3-3-3---2--2-2-2
e-------------------------------------------

Chorus x5 
D--0-3-0--0-5-0-5-0--0-5-0-5-0--0-3-0
A--0-3-0--0-5-0-5-0--0-5-0-5-0--0-3-0
e--0-3-0--0-5-0-5-0--0-5-0-5-0--0-3-0

After Chorus During the “Ahh” part,Also same riff for 2nd verse
D--x-x-x-0-3
A--x-x-x-0-3
e--x-x-x-0-3

Now that you know the song this is the way you play it

Intro-play as writen
2nd Intro 4x
Verse x5
Part Before Chorus-play as written
Chorus x5
After Chorus x2
2nd Verse x8
Chorus x5
Part Before Chorus-Play as written
Chorus Keep Repeating 
And there ya go
Comments