Marilyn Manson - Target Audience Chords & Tabs

 

Target Audience Chords & Tabs

Marilyn Manson Chords & Tabs

Version: 1 Type: Tab 0 ratings
1 star 2 stars 3 stars 4 stars 5 stars
comments

Target Audience Tab

Artist-Marilyn Manson
album-holywood

tabbed by hjoou

Target Audience
~standard E tunning (Eadgbe)
or drop D (Dadgbe)
both sound alright.


i think this is one of the most accurate tabs of T.audience on the net
well if you think i missed out something or just wanna mail and diss my ass
here's my email hjoou@antisocial.com
have fun!!!!


main verse riff  [riff no.1]

1:----------------------0------1-------------------------0-------0-
2:-------3----------------3----------------3----------------3------
3:---------2-----------------2---------------2----------------2----
4:----0------------------------------------------------------------
5:-----------------------------------------------------------------
6:-----------------------------------------------------------------


main verse riff continued.

1:-----------------------------------------------------------------
2:----------------------0------1-------------------------0-------1-
3:-------2----------------2----------------2----------------2------
4:---------2-----------------2---------------2----------------2----
5:----0------------------------------------------------------------
6:-----------------------------------------------------------------


verse riff. [riff no.2]
this part makes its debut at "and i'm sorry Shakespeare was your scapegoat"
(hehe can't believe i just said that.) 
[ Tab from: http://www.guitartabs.cc/tabs/m/marilyn_manson/target_audience_tab.html ]
1:-----------------------------------------------------------------
2:----0----------------1---------0----------------0----------1-----
3:------2----------------2----------2---------------2--------------
4:----------------------------------------------------2------------
5:--0-----------------------0---------0----------------------------
6:-----------------------------------------------------------------


Chorus Riff  [riff no. 3]  

1:-----------------------------------------------------------------
2:-----------15^----------------------------15^--------------------
3:-----------14^----------------------------14^--------------------
4:-----0-0-----------3-3----x-x---x----2-2----------1-1-/-3-3------
5:-----0-0-----------3-3----x-x---x----2-2----------1-1-/-3-3------
6:-----0-0-----------3-3----x-x---x----2-2----------1-1-/-3-3------

last time you play this (chorus riff) end it with a :
4:-0-
5:-0-
6:-0-
actually it doesen't really matter but i think it sounds better that way. 



fill. 1   [lets just call it riff no. 4]
this is the part where he keeps moaning "we all just sing this song"

3:------------11^-|
4:--11--9--8------|

okay see the last note you play in this (fill 1.)?
yeah the 3rd string 11th fret. keep alternating it with 3rd string 12th fret.
and again this is not necessary but i think it sounds betterthis way.


fill. 2  [riff no.5]
this is the "valley of death we are.." part.

1:-----2---2^~-------0--------|     
2:---2---2---------3---3--2---|


 
the cool riff [riff no.6]

i don't even have to tell you which part this comes in i think its pretty obvious.
try strumming it and you'll get it. 

      x7     x7     x7    x7 
3:----|7|---|10|---|9|---|8|
4:----|-|---|--|---|-|---|-|
5:----|5|---|-8|---|7|---|6|

the end! have anice day!
   year 2000.



                                             
Comments