Marilyn Manson - Target Audience Chords & Tabs

 

Target Audience Chords & Tabs

Marilyn Manson Chords & Tabs

Version: 4 Type: Bass Tab 0 ratings
1 star 2 stars 3 stars 4 stars 5 stars
comments

Target Audience Bass Tab

   
Pre-Chorus - start when he says "but im sorry shakespeare..."
G:------------------
D:------------------
A:------------------
E:-33333333-77777777    x2

Chorus
G:------------------------
D:------------------------
A:------------------------
E:-0-0--3-3--2-2--1-1/3333    x3

Verse
G:---------------------------------------------------
D:---------------------------------------------------
A:-5~------/12~-----\5~--------------5~--------------
E:---------------------------7~--------------7~------
[ Tab from: http://www.guitartabs.cc/tabs/m/marilyn_manson/target_audience_btab_ver_4.html ]
Pre-Chorus
G:------------------
D:------------------
A:------------------
E:-33333333-77777777    x2

Chorus
G:------------------------
D:------------------------
A:------------------------
E:-0-0--3-3--2-2--1-1/3333    x6

Bridge
G:----------------
D:----------------
A:---2---2^--0----
E:-2---2---3---3-2    x6

End Chorus
G:------------------------------
D:------------------------------
A:------------------------------
E:-0-0-XX-3-3-XX-2-2-XX-1-1/3333    x8

End
G:----
D:----
A:----
E:-0-0
Comments