Marilyn Manson - Tainted Love Chords & Tabs

 

Tainted Love Chords & Tabs

Marilyn Manson Chords & Tabs

Version: 5 Type: Tab 0 ratings
1 star 2 stars 3 stars 4 stars 5 stars
comments

Tainted Love Tab

Song:Tainted Love
Artist:Marilyn Manson (It is a cover number)
Tabbed By:Mikkel Klein-Døssing fmbmrtjd@hotmail.com

intro
e|------3-3-----3-3-----3-3-----3-3-----------------------------------------|
B|----------------------------------------------4-4-4-4---------------------|
G|--------------------------------------3-3-3-3---------3-3-5-5-----3-3-3-3-|
D|--5-5-----5-5-----5-5-----5-5-----5-5-------------------------5-5---------|
A|--5-5-----5-5-----5-5-----5-5-----5-5-------------------------5-5---------|
E|--3-3-----3-3-----3-3-----3-3-----3-3-------------------------3-3---------|

e|--------------------------------------------------------------------------|
B|--4-4-4-4---------------------4-4-4-4---------------------4-4-4-4---------|
G|----------3-3-5-5-----3-3-3-3---------3-3-5-5-----3-3-3-3---------3-3-5-5-|
D|------------------5-5-------------------------5-5-------------------------|
A|------------------5-5-------------------------5-5-------------------------|
E|------------------3-3-------------------------3-3-------------------------|

e|---------------------------------------------------------------------------|
B|--------------4-4-4-4------------------------------------------------------|
G|------3-3-3-3---------3-3-5-5----------------------------------------------|
D|--5-5----------------------------------------------------------------------|
A|--5-5----------------------------------------------------------------------|
E|--3-3----------------------------------------------------------------------|

verse
e|------3-3-------3-3------3-3------3-3------3-3------3-3------3-3----------|
B|--------------------------------------------------------------------------|
G|--------------------------------------------------------------------------|
D|--5-5------5-5------5-5------5-5------5-5------5-5------5-5---------------|
A|--5-5------5-5------5-5------5-5------5-5------5-5------5-5---------------|
E|--3-3------3-3------3-3------3-3------3-3------3-3------3-3---------------|

e|--------------------------------------------------------------------------|
B|--------------------------------------------------------------------------|
G|--------------------------------------------------------------------------|
D|--5-5--5-5----------------------------------------------------------------|
A|--5-5--5-5----------------------------------------------------------------|
E|--3-3--3-3----------------------------------------------------------------|

Bridge
e|--------------------------------------------------------------------------|
B|--------------------------------------------------------------------------|
G|------------------------------------------------------8-8-8-8-8-8---------|
D|--5-5-5-5-5-5--5-5-5-5-5-5--8-8-8-8-8-8--8-8-8-8-8-8--8-8-8-8-8-8---------|
A|--5-5-5-5-5-5--5-5-5-5-5-5--8-8-8-8-8-8--8-8-8-8-8-8--6-6-6-6-6-6---------|
E|--3-3-3-3-3-3--3-3-3-3-3-3--6-6-6-6-6-6--6-6-6-6-6-6----------------------|

e|--------------------------------------------------------------------------|
B|--------------------------------------------------------------------------|
G|--8-8-8-8-8-8--5-5-5-5-5-5--5-5-5-5-5-5-----------------------------------|
D|--8-8-8-8-8-8--5-5-5-5-5-5--5-5-5-5-5-5--5-5-5-5-5-5--5-5-5-5-5-5---------|
A|--6-6-6-6-6-6--3-3-3-3-3-3--3-3-3-3-3-3--5-5-5-5-5-5--5-5-5-5-5-5---------|
E|-----------------------------------------3-3-3-3-3-3--3-3-3-3-3-3---------|

Chorus
e|------3-3------3-3--------------------------------------------------------|
B|--------------------------------------------------------------------------|
G|--------------------------------------------------------------------------|
D|--5-5------5-5------------------------------------------------------------|
A|--5-5------5-5------------------------------------------------------------|
E|--3-3------3-3------------------------------------------------------------|

verse 2
verse
e|------3-3-------3-3------3-3------3-3------3-3------3-3------3-3----------|
B|--------------------------------------------------------------------------|
G|--------------------------------------------------------------------------|
D|--5-5------5-5------5-5------5-5------5-5------5-5------5-5---------------|
A|--5-5------5-5------5-5------5-5------5-5------5-5------5-5---------------|
E|--3-3------3-3------3-3------3-3------3-3------3-3------3-3---------------|

e|--------------------------------------------------------------------------|
B|--------------------------------------------------------------------------|
G|--------------------------------------------------------------------------|
D|--5-5--5-5----------------------------------------------------------------|
A|--5-5--5-5----------------------------------------------------------------|
E|--3-3--3-3----------------------------------------------------------------|
[ Tab from: http://www.guitartabs.cc/tabs/m/marilyn_manson/tainted_love_tab_ver_5.html ]
Bridge
e|--------------------------------------------------------------------------|
B|--------------------------------------------------------------------------|
G|------------------------------------------------------8-8-8-8-8-8---------|
D|--5-5-5-5-5-5--5-5-5-5-5-5--8-8-8-8-8-8--8-8-8-8-8-8--8-8-8-8-8-8---------|
A|--5-5-5-5-5-5--5-5-5-5-5-5--8-8-8-8-8-8--8-8-8-8-8-8--6-6-6-6-6-6---------|
E|--3-3-3-3-3-3--3-3-3-3-3-3--6-6-6-6-6-6--6-6-6-6-6-6----------------------|

e|--------------------------------------------------------------------------|
B|--------------------------------------------------------------------------|
G|--8-8-8-8-8-8--5-5-5-5-5-5--5-5-5-5-5-5-----------------------------------|
D|--8-8-8-8-8-8--5-5-5-5-5-5--5-5-5-5-5-5--5-5-5-5-5-5--5-5-5-5-5-5---------|
A|--6-6-6-6-6-6--3-3-3-3-3-3--3-3-3-3-3-3--5-5-5-5-5-5--5-5-5-5-5-5---------|
E|-----------------------------------------3-3-3-3-3-3--3-3-3-3-3-3---------|

chorus2

e|--------------------------------------------------------------------------|
B|------------4-4------------------------4-4--------------------------------|
G|-------3-3-------3-3-3--5-5-------3-3-------3-3-3--5-5--------------------|
D|--5-5------------------------5-5------------------------------------------|
A|--5-5------------------------5-5------------------------------------------|
E|--3-3------------------------3-3------------------------------------------|


e|--------------------------------------------------------------------------|
B|------------4-4------------------------4-4--------------------------------|
G|-------3-3-------3-3-3--5-5-------3-3-------3-3-3--5-5--------------------|
D|--5-5------------------------5-5------------------------------------------|
A|--------------------------------------------------------------------------|
E|--------------------------------------------------------------------------|


e|--------------------------------------------------------------------------|
B|--------------------------4-4-4-4---------------------------4-4-4-4-------|
G|-----------------3-3-3-3-----------3-3--5-5--------3-3-3-3----------------|
D|--5-5--5-5--5-5-------------------------------5-5-------------------------|
A|--5-5--5-5--5-5-------------------------------5-5-------------------------|
E|--3-3--3-3--3-3-------------------------------3-3-------------------------|


e|--------------------------------------------------------------------------|
B|---------------------------4-4-4-4---------------------------4-4-4-4------|
G|--3-3--5-5--------3-3-3-3-----------3-3--5-5--------3-3-3-3---------------|
D|-------------5-5-------------------------------5-5------------------------|
A|-------------5-5-------------------------------5-5------------------------|
E|-------------3-3-------------------------------3-3------------------------|


e|--------------------------------------------------------------------------|
B|--------------------------------------------------------------------------|
G|--3-3--5-5----------------------------------------------------------------|
D|--------------------------------------------------------------------------|
A|--------------------------------------------------------------------------|
E|--------------------------------------------------------------------------|

Bridge
e|--------------------------------------------------------------------------|
B|--------------------------------------------------------------------------|
G|------------------------------------------------------8-8-8-8-8-8---------|
D|--5-5-5-5-5-5--5-5-5-5-5-5--8-8-8-8-8-8--8-8-8-8-8-8--8-8-8-8-8-8---------|
A|--5-5-5-5-5-5--5-5-5-5-5-5--8-8-8-8-8-8--8-8-8-8-8-8--6-6-6-6-6-6---------|
E|--3-3-3-3-3-3--3-3-3-3-3-3--6-6-6-6-6-6--6-6-6-6-6-6----------------------|

e|--------------------------------------------------------------------------|
B|--------------------------------------------------------------------------|
G|--8-8-8-8-8-8--5-5-5-5-5-5--5-5-5-5-5-5-----------------------------------|
D|--8-8-8-8-8-8--5-5-5-5-5-5--5-5-5-5-5-5--5-5-5-5-5-5--5-5-5-5-5-5---------|
A|--6-6-6-6-6-6--3-3-3-3-3-3--3-3-3-3-3-3--5-5-5-5-5-5--5-5-5-5-5-5---------|
E|-----------------------------------------3-3-3-3-3-3--3-3-3-3-3-3---------|

Chorus

e|--------------------------------------------------------------------------|
B|----------------4-4-4-4---------------------------4-4-4-4-----------------|
G|-------3-3-3-3-----------3-3--5-5--------3-3-3-3-----------3-3--5-5-------|
D|--5-5-------------------------------5-5-----------------------------------|
A|--5-5-------------------------------5-5-----------------------------------|
E|--3-3-------------------------------3-3-----------------------------------|


e|--------------------------------------------------------------------------|
B|----------------4-4-4-4---------------------------------------------------|
G|-------3-3-3-3-----------3-3--5-5-----------------------------------------|
D|--5-5-------------------------------5-5-----------------------------------|
A|--3-3-------------------------------5-5-----------------------------------|
E|--3-3-------------------------------3-3-----------------------------------|
Comments