Marilyn Manson - Tainted Love Chords & Tabs

 

Tainted Love Chords & Tabs

Marilyn Manson Chords & Tabs

Version: 3 Type: Tab 0 ratings
1 star 2 stars 3 stars 4 stars 5 stars
comments

Tainted Love Tab

 Artist: Marilyn Manson 
 Song Title: Tainted Love
 Tabbed by: Peter (Power)


 I pretty sure that this is right, just take a look at it.
 Cool song. 
 

 Here is the main riff

 Main riff:      Play this several times through the song   
------------------------------------------------------------
------------------------------------------------------------
------------------------------------------------------------
-5-5------------5-5------------5-5------------3-3-----------
-5-5------------5-5------------5-5------------3-3-----------
-3-3------------3-3------------3-3------------5-5-----------
    Tainted Love   Tainted Love...........


 And here is the chorus 
[ Tab from: http://www.guitartabs.cc/tabs/m/marilyn_manson/tainted_love_tab_ver_3.html ]
 Chorus:
------------------------------------------------------------
------------------------------------------------------------
------------------------------------------------------------
-5-5-55-xx------5-5-55-xx------8-8-88-xx------8-8-88-xx-----
-5-5-55-xx------5-5-55-xx------8-8-88-xx------8-8-88-xx-----
-3-3-33-xx------3-3-33-xx------6-6-66-xx------6-6-66-xx-----


------------------------------------------------------------
------------------------------------------------------------
-8-8-88-xx------8-8-88-xx------5-5-55-xx------5-5-55-xx-----
-8-8-88-xx------8-8-88-xx------5-5-55-xx------5-5-55-xx-----
-6-6-66-xx------6-6-66-xx------3-3-33-xx------3-3-33-xx-----
------------------------------------------------------------


------------------------------------------------------------
------------------------------------------------------------
-5-5-55-xx------5-5-55-xx-----------------------------------
-5-5-55-xx------5-5-55-xx-----------------------------------
-3-3-33-xx------3-3-33-xx-----------------------------------
------------------------------------------------------------

 Well I think this is it, tell me what you
 think of it :)

Comments