Marilyn Manson - Tainted Love Chords & Tabs

 

Tainted Love Chords & Tabs

Marilyn Manson Chords & Tabs

Version: 2 Type: Tab 0 ratings
1 star 2 stars 3 stars 4 stars 5 stars
comments

Tainted Love Tab

Tainted love.
by Marilyn Manson. (cover version) 2001.


Main riff/verse:

3|------x--3--/8-8-8-8-\-3-3-/-5-5--|
4|-3-3--x---------------------------| repeat several
5|-3-3--x--1--/6-6-6-6-\-1-1-/-3-3--|     times.
6|-1-1--x---------------------------|

Chorus:

3|---------------------|-3-3-x-x-x-3-3-x-x-x-|
4|-3-3-x-x-x-3-3-x-x-x-|-3-3-x-x-x-3-3-x-x-x-|
5|-3-3-x-x-x-3-3-x-x-x-|-1-1-x-x-x-1-1-x-x-x-|
6|-1-1-x-x-x-1-1-x-x-x-|---------------------|
'once I ran to you......now I run from you...'
[ Tab from: http://www.guitartabs.cc/tabs/m/marilyn_manson/tainted_love_tab_ver_2.html ]
3|-8-8-x-x-x-8-8-x-x-x-|-5-5-x-x-x-5-5-x-x-x-|
4|-8-8-x-x-x-8-8-x-x-x-|-5-5-x-x-x-5-5-x-x-x-|
5|-6-6-x-x-x-6-6-x-x-x-|-3-3-x-x-x-3-3-x-x-x-|
6|---------------------|---------------------|
'this tainted love.....give you all a boy could...'

3|-5-5-x-x-x-5-5-x-x-x-|-5-5-x-x-x-5-5-x-x-x-|
4|-5-5-x-x-x-5-5-x-x-x-|-5-5-x-x-x-5-5-x-x-x-|
5|-3-3-x-x-x-3-3-x-x-x-|-3-3-x-x-x-3-3-x-x-x-|
6|---------------------|---------------------|
'take these tears...'

Interlude riff:

3|---------1-1------| this is only
4|-----1-1-----1-3--| just audible
5|-3-3--------------| in the background.

repeat all the necessary parts.

enjoy! And Remember To Tell Me What You Think!
Comments