Marilyn Manson - Tainted Love Chords & Tabs

 

Tainted Love Chords & Tabs

Marilyn Manson Chords & Tabs

Version: 1 Type: Tab 0 ratings
1 star 2 stars 3 stars 4 stars 5 stars
comments

Tainted Love Tab

This Is Just A Very Very Small Piece:
e|---------------------------------------------------------
B|---------------------------------------------------------
G|---------------------------------------------------------
D|---------------1--1---------------------------------------
A|---------1--1--------1-3---------------------------------
E|---3--3--------------------------------------------------
[ Tab from: http://www.guitartabs.cc/tabs/m/marilyn_manson/tainted_love_tab.html ]
e|---------------------------------------------------------
B|---------------------------------------------------------
G|---------------1--1--------------------------------------
D|---------1--1--------1-3---------------------------------
A|---3--3--------------------------------------------------
E|---------------------------------------------------------
Try It Either Way, Which ever You Think Sounds Best
(I Will Get The Rest Of The Song Pretty Soon)Tell Me What You Think This Is My First Tab.
Comments