Marilyn Manson - Sweet Tooth Chords & Tabs

 

Sweet Tooth Chords & Tabs

Marilyn Manson Chords & Tabs

Version: 4 Type: Tab 0 ratings
1 star 2 stars 3 stars 4 stars 5 stars
comments

Sweet Tooth Tab

Sweet Tooth by Marilyn Manson
  Guitarist: Daisy Berkowitz
  Album: Portrait Of An American Family
  Dif.: 6
  Tabbed by Twiggy5

NOTE: You need  2 pickups for this song and you need to have a toggle switch... So here’s the deal... Turn the volume of one pickup all the way up and the other pickup volume all the way down.

  Intro 1 (fade in)
  D|----2------|
  A|----2------|
  E|----0------|
          <<<  >>

  Intro 2
  e|--12^--|
           ^ slowly bend a full step

  Intro 3/Chorus
  G|----4-------------------|-----4-----------------7---|
  D|-2--4--2-5-2--7--5--|-2--4--2--5--2--7--7---|
  A|-2--2--2-5-2--7--5--|-2--2--2--5--2--7--5---|
  E|-0-----0-3-0--5--3--|-0------0--3--0--5-------|

  Fill 1
  G|--9----------------------------9\\\--|
  D|--9----------------------------9\\\--|
  A|--7----------------------------7\\\--|
  E|--0----------------------------------|
[ Tab from: http://www.guitartabs.cc/tabs/m/marilyn_manson/sweet_tooth_tab_ver_4.html ]
  Verse (Palm Mute All) (“Disease, disease...”)
  A|-4-4-4-4-3-3-3-3-2-2-2-2-3-3-3-3--|
  E|-2-2-2-2-1-1-1-1-0-0-0-0-1-1-1-1--|

  Fill 2
  D|--4--3--2--3--|
  A|--4--3--2--3--|
  E|--2--1--0--1--|

  Fill 3 (Fuck with toggle switch)
  G|-7-------------------------------9\\\--|
  D|---------------------------------9\\\--|
  A|---------------------------------7\\\--|
     NH fuck with rhythm of toggle switch then before slide stop and do slide

  Fill 4
  D|--2-----|
  A|--2-----|
  E|--0-----|

  End
  D|--2-------------------|
  A|--2--------------\----|
  E|--0-------------------|

  Misc. Effects
  Intro 1
  Rest
  Intro 2
  Intro 3
  Fill
  Rest
  Verse
  Chorus
  Fill 3
  Rest
  Verse (“I make the faces that...”)
  Fill 2
  Fill 3
  Chorus
  End

Really underrated song of Manson I’m thinking of also doing Wrapped In Plastic and some other lesser known ones of Manson cause I’ve done so many of Manson I gotta go for the lesser known ones. Well if you have any comments corrections or suggestions email me at ToXic345x@yahoo.ca
Comments