Marilyn Manson - Sweet Tooth Chords & Tabs

 

Sweet Tooth Chords & Tabs

Marilyn Manson Chords & Tabs

Version: 2 Type: Tab 0 ratings
1 star 2 stars 3 stars 4 stars 5 stars
comments

Sweet Tooth Tab

Marilyn Manson's Sweet Tooth
off of the album: Portrait of an American Family
Tabbed by: Bryan Wilson (sinistarthought@aol.com)

Drop-D tuning (DADG)

I have learned how to play this song two ways and i think i will tab out both
of them so you can decide which to use (i really am not sure which is or is
not correct...one of them was tabbed by my Guitar player...)


(Version 1)
Intro
G|--------------------------------------------------------------
D|--------------------------------------------------------------
A|--------------------------------------------------------------
D|----------5b--------------------------------------------------


Chorus
G|-----------------------------------------------------------------
D|-----------------------------------------------------------------
A|-----------------------------------------------------------------
D|-5/12-5/8-5/10-10-10-8-8-8-8-10---5/12-5/8-5/10-14-14-12-12-12-14


Verse                                        pre-chorus
G|------------------------------------------|----------------------
D|------------------------------------------|----------------------
A|------------------------------------------|----------------------
D|--7-7-7-7-6-6-6-6-5-5-5-5-6-6-6-6---------|--7-6-5-6-------------

[ Tab from: http://www.guitartabs.cc/tabs/m/marilyn_manson/sweet_tooth_tab_ver_2.html ]
Bridge
G|-----------------------------------------------------------------
D|-----------------------------------------------------------------
A|-----------------------------------------------------------------
D|------------5b-----------------5b--------------------------------

---------------------------------------------------------------------

(Version 2)

Intro
G|-------------------------------------------------------
D|-------------------------------------------------------
A|--5b---------------------------------------------------
D|-------------------------------------------------------


Chorus
G|-----------------------------------------7-9-9-5-5-5-7-
D|-----9---7---9-9-9-7-5-5-5-7-----9---7-----------------
A|---7---7---7-------------------7---7---7---------------
D|-------------------------------------------------------


Verse            pre-chorus
G|------------------------------------------|------------
D|------------------------------------------|------------
A|--7-7-7-7-6-6-6-6-5-5-5-5-6-6-6-6---------|--7-6-5-6---
D|------------------------------------------|------------


Bridge
G|-------------------------------------------------------
D|-------------------------------------------------------
A|----5b--------------------5b---------------------------
D|-------------------------------------------------------

there you go...i hope that this helps any of you Manson fans that have a hard 
time finding tabs for him

Comments