Marilyn Manson - Sweet Dreams Chords & Tabs

 

Sweet Dreams Chords & Tabs

Marilyn Manson Chords & Tabs

Version: 2 Type: Tab 2 ratings
1 star 2 stars 3 stars 4 stars 5 stars
comments

Sweet Dreams Tab

Sweet Dreams                                   
Marilyn Manson


                                                          5x
E||---------------------------|---------------------------|
B||---------------------------|---------------------------|
G||---------------------------|----------------------------|
D||---------5-----6-----5-----|---------------------------|
A||---3--3-----3-----3-----3--|--------6/-8--------5/-6---|
E||---------------------------|--4--4--------3--3---------|


                                                       2x
---------------------------|---------------------------|
---------------------------|---------------------------|
---------------------------|----------------------------|
---------5-----6-----5-----|---------------------------|
---3--3-----3-----3-----3--|--------6/-8--------5/-6---|
---------------------------|--4--4--------3--3---------|


                                                                               
--------------------------|--------------------------|----|----|----|----|----|
--------------------------|--------------------------|----|----|----|----|----|
--------------------------|--------------------------|----|----|----|----|----|
--------5-----6-----5-----|--------------------------|----|----|----|----|----|
--3--3-----3-----3-----3--|--------6/-8--------5/-6--|----|----|----|----|----|
--------------------------|--4--4--------3--3--------|----|----|----|----|----|


                                                             7x
----||---------------------------|---------------------------|
----||---------------------------|---------------------------|
----||*--------------------------|--------------------------*|
----||*--------5-----6-----5-----|--------------------------*|
----||---3--3-----3-----3-----3--|--------6/-8--------5/-6---|
----||---------------------------|--4--4--------3--3---------|


                                                       2x
---------------------------|---------------------------|
---------------------------|---------------------------
*--------------------------|--------------------------*|
*--------5-----6-----5-----|--------------------------*|
---3--3-----3-----3-----3--|--------6/-8--------5/-6---|
---------------------------|--4--4--------3--3---------|


                                                                              
--------------------------|--------------------------|-----------------------|
--------------------------|--------------------------|---------------3--3r---|
--------------------------|--------------------------|--5----3--5------------|
--------5-----6-----5-----|--------------------------|-----------------------|
--3--3-----3-----3-----3--|--------6/-8--------5/-6--|-----------------------|
--------------------------|--4--4--------3--3--------|-----------------------|


                                                                       
-----------------------|-----------------------|----------------------|
---------------3--3r---|---------------3--3r---|---------------7r-----|
--5----3--5------------|--5----3--5------------|--5----3--5-----------|
-----------------------|-----------------------|----------------------|
-----------------------|-----------------------|----------------------|
-----------------------|-----------------------|----------------------|


                                                                      
-----------------------|-----------------------||--------------------|
---------------3--3r---|---------------3--3r---||--------------------|
--5----3--5------------|--5----3--5------------||*--5----------------|
-----------------------|-----------------------||*-------------------|
-----------------------|-----------------------||--------------------|
-----------------------|-----------------------||--------------------|


                   2x                                      
-------------------||------------------|------------------|
-------------------||------------------|------------------|
------------------*||------------------|------------------|
------------------*||------------------|------------------|
-------------------||------------------|------------------|
-------------------||------------------|------------------|

[ Tab from: http://www.guitartabs.cc/tabs/m/marilyn_manson/sweet_dreams_tab_ver_2.html ]
                                                      
--------------------------|--------------------------|
--------------------------|--------------------------|
--------------------------|--------------------------|
--------5-----6-----5-----|--------------------------|
--3--3-----3-----3-----3--|--------6/-8--------5/-6--|
--------------------------|--4--4--------3--3--------|


                                                      
--------------------------|--------------------------|
--------------------------|--------------------------|
--------------------------|--------------------------|
--------5-----6-----5-----|--------------------------|
--3--3-----3-----3-----3--|--------6/-8--------5/-6--|
--------------------------|--4--4--------3--3--------|


                                                      
--------------------------|--------------------------|
--------------------------|--------------------------|
--------------------------|--------------------------|
--------5-----6-----5-----|--------------------------|
--3--3-----3-----3-----3--|--------6/-8--------5/-6--|
--------------------------|--4--4--------3--3--------|


                                                                           
--------------------------|--------------------------|--20----------------
--------------------------|--------------------------|--------------------
--------------------------|--------------------------|--------------------
--------5-----6-----5-----|--------------------------|--------------------
--3--3-----3-----3-----3--|--------6/-8--------5/-6--|--------------------
--------------------------|--4--4--------3--3--------|--------------------


                                                                     2x
----------------------||---20----------------|-----------------------|
--21--------20--------||---------------------|--21--------20---------
----------------------||*--------------------|----------------------*|
----------------------||*--------------------|----------------------*|
----------------------||---------------------|-----------------------|
----------------------||---------------------|-----------------------|


                                                       2x
---------------------------|---------------------------|
---------------------------|---------------------------/
*--------------------------|--------------------------*|
*--------5-----6-----5-----|--------------------------*|
---3--3-----3-----3-----3--|--------6/-8--------5/-6---|
---------------------------|--4--4--------3--3---------|


                                                                              
--------------------------|--------------------------|-----------------------|
--------------------------|--------------------------|---------------3--3r---|
--------------------------|--------------------------|--5----3--5------------|
--------5-----6-----5-----|--------------------------|-----------------------|
--3--3-----3-----3-----3--|--------6/-8--------5/-6--|-----------------------|
--------------------------|--4--4--------3--3--------|-----------------------|


                                                                      
-----------------------|-----------------------|---------------------|
---------------6--6r---|---------------3--3r---|---------------------|
--5----3--5------------|--5----3--5------------|--5----3--5----------|
-----------------------|-----------------------|---------------------|
-----------------------|-----------------------|---------------------|
-----------------------|-----------------------|---------------------|


                                                            
|-----------------------------|---------------------------|
|-------------------15--15r---|------------------19r------|
|*--17----15--17--------------|--17----15--17------------*|
|*----------------------------|--------------------------*|
|-----------------------------|---------------------------|
|-----------------------------|---------------------------|


                                                              
--20-----------------|-------------------|------------------|
---------------------|-------------------|------------------|
---------------------|-------------------|------------------|
------------6--------|--5----------------|------------------|
------------6--------|--5----------------|------------------|
------------4--------|--3----------------|------------------|
Comments