Marilyn Manson - Sweet Dreams Solo Chords & Tabs

 

Sweet Dreams Solo Chords & Tabs

Marilyn Manson Chords & Tabs

Version: 1 Type: Tab 0 ratings
1 star 2 stars 3 stars 4 stars 5 stars
comments

Sweet Dreams Solo Tab

|--6---8---11---6--|--8---6~------------|------------------|------------------|
|------------------|-----------7--------|------------------|------------------|
|------------------|--------------------|--5---3---5-------|------------------|
|------------------|--------------------|--------------3---|--3---5---3---5---|
|------------------|--------------------|------------------|------------------|
|------------------|--------------------|------------------|------------------|
[ Tab from: http://www.guitartabs.cc/tabs/m/marilyn_manson/sweet_dreams_solo_tab.html ]
|------------------|--------------------|------------------|------------------|
|------------------|--------------------|------------------|------------------|
|------------------|--------------------|----------3---3---|--5---6---5---5---|
|--3---5-----------|--3-----3--3--3--3--|--5---6-----------|------------------|
|----------3---5---|--------------------|------------------|------------------|
|------------------|--------------------|------------------|------------------|

|------------------|-------6---8---6----|--11---13---14b-------|
|--3---4---3---6---|--6b----------------|-----------------13~--|
|------------------|--------------------|----------------------|
|------------------|--------------------|----------------------|
|------------------|--------------------|----------------------|
|------------------|--------------------|----------------------|
Comments