Marilyn Manson - Sweet Dreams Guitar Chords & Tabs

 

Sweet Dreams Guitar Chords & Tabs

Marilyn Manson Chords & Tabs

Version: 1 Type: Tab 0 ratings
1 star 2 stars 3 stars 4 stars 5 stars
comments

Sweet Dreams Guitar Tab

                                 Sweet Dreams                                   


                                                                      Marilyn Manson
Guitar 2
There's maybe a few things wrong during the solo, but i think the rest is perfect

                  5x                                                 2x
E||-------|-------||--------------------------|----------------------||
B||-------|-------||--------------------------|----------------------||
G||*------|------*||*--5--5--5--5--5--5--5----|---------------------*||
D||*------|------*||*--5--5--5--5--5--5--5----|--6----6----5--------*||
A||-------|-------||---3--3--3--3--3--3--3----|--6----6----5---------||
E||-------|-------||--------------------------|--4----4----3---------||


                                                      
--------------------------|--------------------------|
--------------------------|--------------------------|
--5--5--5--5--5--5--5--5--|--------------------------|
--5--5--5--5--5--5--5--5--|--6--6--6--6--5--5--5--5--|
--3--3--3--3--3--3--3--3--|--6--6--6--6--5--5--5--5--|
--------------------------|--4--4--4--4--3--3--3--3--|


                                                      
--------------------------|--------------------------|
--------------------------|--------------------------|
--------------------------|-----------------------5--|
--6--6--6--6--6--6--6--6--|--6--6--6--6--6--5--5--5--|
--6--6--6--6--6--6--6--6--|--6--6--6--6--6--5--5--3--|
--4--4--4--4--4--4--4--4--|--4--4--4--4--4--3--3-----|


                                                      
--------------------------|--------------------------|
--------------------------|--------------------------|
--5--5--5--5--5--5--5--5--|--------------------------|
--5--5--5--5--5--5--5--5--|--6--6--6--6--6--6--6--5--|
--3--3--3--3--3--3--3--3--|--6--6--6--6--6--6--6--5--|
--------------------------|--4--4--4--4--4--4--4--3--|


                                                                           
--------------------------|--------------------------||-------------------|
--------------------------|--------------------------||-------------------|
--------------------------|--------------------------||*------------------|
--6--6--6--6--6--6--6--6--|--5--5--5--5--5--5--5--5--||*------------------|
--6--6--6--6--6--6--6--6--|--5--5--5--5--5--5--5--5--||-------------------|
--4--4--4--4--4--4--4--4--|--3--3--3--3--3--3--3--3--||-------------------|


                   7x                                                 2x
-------------------||--------------------------|----------------------||
-------------------||--------------------------|----------------------||
------------------*||*--5--5--5--5--5--5--5----|---------------------*||
------------------*||*--5--5--5--5--5--5--5----|--6----6----5--------*||
-------------------||---3--3--3--3--3--3--3----|--6----6----5---------||
-------------------||--------------------------|--4----4----3---------||


                                                      
--------------------------|--------------------------|
--------------------------|--------------------------|
--5--5--5--5--5--5--5--5--|--------------------------|
--5--5--5--5--5--5--5--5--|--6--6--6--6--5--5--5--5--|
--3--3--3--3--3--3--3--3--|--6--6--6--6--5--5--5--5--|
--------------------------|--4--4--4--4--3--3--3--3--|


                                                      
--------------------------|--------------------------|
--------------------------|--------------------------|
--------------------------|-----------------------5--|
--6--6--6--6--6--6--6--6--|--6--6--6--6--6--5--5--5--|
--6--6--6--6--6--6--6--6--|--6--6--6--6--6--5--5--3--|
--4--4--4--4--4--4--4--4--|--4--4--4--4--4--3--3-----|


                                                      
--------------------------|--------------------------|
--------------------------|--------------------------|
--5--5--5--5--5--5--5--5--|--------------------------|
--5--5--5--5--5--5--5--5--|--6--6--6--6--6--6--6--5--|
--3--3--3--3--3--3--3--3--|--6--6--6--6--6--6--6--5--|
--------------------------|--4--4--4--4--4--4--4--3--|


                                                                            
--------------------------|--------------------------||--------------------|
--------------------------|--------------------------||--------------------|
--------------------------|--------------------------||*-------------------|
--6--6--6--6--6--6--6--6--|--5--5--5--5--5--5--5--5--||*--6----------------|
--6--6--6--6--6--6--6--6--|--5--5--5--5--5--5--5--5--||---6----------------|
--4--4--4--4--4--4--4--4--|--3--3--3--3--3--3--3--3--||---4----------------|
[ Tab from: http://www.guitartabs.cc/tabs/m/marilyn_manson/sweet_dreams_guitar_tab.html ]

                    2x                                                 
--------------------||--------------------------|---------------------|
--------------------||--------------------------|---------------------|
-------------------*||--------------------------|---------------------|
--5----------------*||--6--6--6--6--6--6--6--6--|--5--5--5------------|
--5-----------------||--6--6--6--6--6--6--6--6--|--5--5--5------------|
--3-----------------||--4--4--4--4--4--4--4--4--|--3--3--3------------|


                                                                     
--6------8----11----6--|--8----6-------------|----------------------|
-----------------------|------------7--------|----------------------|
-----------------------|---------------------|--5----3--5-----------|
-----------------------|---------------------|---------------3------|
-----------------------|---------------------|----------------------|
-----------------------|---------------------|----------------------|


                                                                      
---------------------|------------------------|----------------------|
---------------------|------------------------|--3------4------3--6--|
------------5--------|--------------5----5----|----------------------|
--3----5-------------|--------3--3------------|----------------------|
---------------------|--3--5------------------|----------------------|
---------------------|------------------------|----------------------|


                                                                                
---------6--8----6----|--11------13--14--------|--------------------|----------|
--6-------------------|------------------------|--13----------------|----------|
----------------------|------------------------|--------------------|----------|
----------------------|------------------------|--------------------|----------|
----------------------|------------------------|--------------------|----------|
----------------------|------------------------|--------------------|----------|


                                2x                           
|-------------------|-----------||--------------------------|
|-------------------|-----------||--------------------------|
|*------------------|----------*||*--5--5--5--5--5--5--5----|
|*------------------|----------*||*--5--5--5--5--5--5--5----|
|-------------------|-----------||---3--3--3--3--3--3--3----|
|-------------------|-----------||--------------------------|


                      2x                                                      
----------------------||--------------------------|--------------------------|
----------------------||--------------------------|--------------------------|
---------------------*||--5--5--5--5--5--5--5--5--|--------------------------|
--6----6----5--------*||--5--5--5--5--5--5--5--5--|--6--6--6--6--5--5--5--5--|
--6----6----5---------||--3--3--3--3--3--3--3--3--|--6--6--6--6--5--5--5--5--|
--4----4----3---------||--------------------------|--4--4--4--4--3--3--3--3--|


                                                      
--------------------------|--------------------------|
--------------------------|--------------------------|
--------------------------|-----------------------5--|
--6--6--6--6--6--6--6--6--|--6--6--6--6--6--5--5--5--|
--6--6--6--6--6--6--6--6--|--6--6--6--6--6--5--5--3--|
--4--4--4--4--4--4--4--4--|--4--4--4--4--4--3--3-----|


                                                      
--------------------------|--------------------------|
--------------------------|--------------------------|
--5--5--5--5--5--5--5--5--|--------------------------|
--5--5--5--5--5--5--5--5--|--6--6--6--6--6--6--6--5--|
--3--3--3--3--3--3--3--3--|--6--6--6--6--6--6--6--5--|
--------------------------|--4--4--4--4--4--4--4--3--|


                                                                               
|---------------------------|---------------------------||--------------------|
|---------------------------|---------------------------||--------------------|
|*--------------------------|--------------------------*||--5-----------------|
|*--6--6--6--6--6--6--6--6--|--5--5--5--5--5--5--5--5--*||--5--------6--------|
|---6--6--6--6--6--6--6--6--|--5--5--5--5--5--5--5--5---||--3--------6--------|
|---4--4--4--4--4--4--4--4--|--3--3--3--3--3--3--3--3---||-----------4--------|


                                        
-------------------|------------------||
-------------------|------------------||
-------------------|------------------||
--5----------------|------------------||
--5----------------|------------------||
--3----------------|------------------||


Comments