Marilyn Manson - Sweet Dreams Chords & Tabs

 

Sweet Dreams Chords & Tabs

Marilyn Manson Chords & Tabs

Version: 7 Type: Bass Tab 0 ratings
1 star 2 stars 3 stars 4 stars 5 stars
comments

Sweet Dreams Bass Tab

Sweet Dreams - Marilyn Manson


Tabbed by: Nika

E-mail: i_am_a_sweetie_2@msn.com

Tuning: Standard

/ = slide up
\ = slide down
~ = let it ring 


I can't take full credit for this tab. I found it somewhere awhile ago and tried to
learn it but a few parts weren't quite right. I figured it out, corrected it, and
organized it a little better (I hope). 

Enjoy! 



Intro (0:35):
G|--------------------------------------------|
D|--------------------------------------------|
A|--------------------------------------------|
E|-8-8-8-8-8-8-8-8-8~----8-8-8-8-8-8-8-8-8-8~-|

G|---------------------------------------------------|
D|---------------------------------------------------|
A|---------------------------------------------------|
E|-8-8-8-8-8-8-8-8-8~----8-8-8-8-8-8-8-8-8-8~--8-\-4-| X1


Chorus (0:56):
G|-------------------------------------------------------|
D|-------------------------------------------------------|
A|-----------------------------------3-3-3-3-3-3-/-6-6-6-|
E|-4-4-4-4-4-4-4-4-4-4-4-4-4--3-3-3----------------------|

G|--------------------------------------------------------|
D|--------------------------------------------------------|
A|--------------------------------------------------------|
E|-4-4-4-4-4-4-4-4-\-3-/-4-4-4-4-4-4-4-4--3-3-3-3-3-3-3-3-| X1

(1:11)
G|----------------------------------------------|
D|----------------------------------------------|
A|----------------------------------------------|
E|-8~-------4~---3~---3-/-8~-------4~---3~---3-/| X8


(1:53) 
G|-------------------------------------------------|
D|-------------------------------------------------|
A|-------------------------------------------------|
E|-10~-----10-\-4~---3~---3-/-10~-----10-\-4~---3-/| X1


G|------------------------------------------------|
D|------------------------------------------------|
A|------------------------------------------------|
E|-10~-----10-\-4~---3~---3-/-10~-----10-\-4~---3~| X1



Chorus (2:14):
G|-------------------------------------------------------|
D|-------------------------------------------------------|
A|-----------------------------------3-3-3-3-3-3-/-6-6-6-|
E|-4-4-4-4-4-4-4-4-4-4-4-4-4--3-3-3----------------------|
[ Tab from: http://www.guitartabs.cc/tabs/m/marilyn_manson/sweet_dreams_btab_ver_7.html ]
G|--------------------------------------------------------|
D|--------------------------------------------------------|
A|--------------------------------------------------------|
E|-4-4-4-4-4-4-4-4-\-3-/-4-4-4-4-4-4-4-4--3-3-3-3-3-3-3-3-| X1


Bridge (2:30):
G|---------------------------------------------------------------------------------------------|
D|---------------------------------------------------------------------------------------------|
A|---------------------------------------------------------------------------------------------|
E|-8~--8-/-16--16~--16-\-8--8~--8-/-16--16~--16-\-8--8~--8-/-16--16~--16-\-8--8~--8-/-16--4-4-4| X1


Under Guitar Solo (2:49):
G|-----------------------------------|
D|-----------------------------------|
A|-----------------------------------|
E|-8-8-8-8-8-8-8-8--4-4-4-4--3-3-3-3-| X3


G|---------------------------------------|
D|---------------------------------------|
A|---------------------------------------|
E|-8-8-8-8-8-8-8-8--4-4-4-4--3-3-3-3---8~| X1


Break (3:12)


(3:31)
G|--------------------------------------------------|
D|--------------------------------------------------|
A|--------------------------------------------------|
E|-8~-----8-\-4~---3~---3-/-8~-----8-\-4~---3~---3-/| X1

G|-------------------------------------------------|
D|-------------------------------------------------|
A|-------------------------------------------------|
E|-8~-----8-\-4~---3~---3-/-8~-----8-\-4~---3~---3~| X1

Chorus (3:51):
G|-------------------------------------------------------|
D|-------------------------------------------------------|
A|-----------------------------------3-3-3-3-3-3-/-6-6-6-|
E|-4-4-4-4-4-4-4-4-4-4-4-4-4--3-3-3----------------------|

G|-------------------------------------------------------|
D|--------------------------------------------------------|
A|--------------------------------------------------------|
E|-4-4-4-4-4-4-4-4-\-3-/-4-4-4-4-4-4-4-4--3-3-3-3-3-3-3-3-| 

G|-------------------------------------------------------------------| 
D|-------------------------------------------------------------------| 
A|----------------------------------3-3-3-3-3-3-3-3------------------| 
E|4-4-4-4-4-4-4-4--3-3-3-3-3-3-3-3---------------------4~---3~-----8~| X1
Comments