Marilyn Manson - Sweet Dreams Chords & Tabs

 

Sweet Dreams Chords & Tabs

Marilyn Manson Chords & Tabs

Version: 5 Type: Bass Tab 0 ratings
1 star 2 stars 3 stars 4 stars 5 stars
comments

Sweet Dreams Bass Tab

song:sweet dreams
artist:marilyn manson
transcribed by marilyn manson
tabbed by trpelonchaspunk

                            "SWEET DREAMS"

Intro (Riff 1)

G:-------------------------------------|
D:-------------------------------------|
A:-------------------------------------|
E:-8--------8--------8--------8--------|

Chorus (Riff 2)

G:--------------------------------------------------------------------|
D:--------------------------------------------------------------------|
A:----------------------------------3-3-3-3-3-3/-6-6------------------|
E:-4-4-4-4-4-4-4-4-4-4-4-4-4-3-3-3--------------------4-4-4-4-4-4-4-3-|

G:----------------------------------|
D:----------------------------------|
A:----------------------------------|
E:-4-4-4-4-4-4-4-4--3-3-3-3-3-3-3-3-|

Fill (Riff 3)

G:-------------------------------------------|
D:-------------------------------------------|
A:-------------------------------------------|
E:-8--------4----3----3/8--------4----3----3/|

Prechorus (Riff 4)

G:-------------------------------------------------|
D:-------------------------------------------------|
A:--------10\--------------------10\---------------|
E:-8----------4----3----3/8----------4----3/-10-11-|

Bridge (Riff 5)
[ Tab from: http://www.guitartabs.cc/tabs/m/marilyn_manson/sweet_dreams_btab_ver_5.html ]
G:----------------------------------------------------------------------------|
D:----------------------------------------------------------------------------|
A:----------------------------------------------------------------------------|
E:-8----8-/-16----16-\-8----8-/-16----16-\-8----8-/-16----16-/-8----8\-4-4-4\-|

Guitar solo (Riff 6)

G:-----------------------------------|
D:-----------------------------------|
A:-----------------------------------|
E:-8-8-8-8-8-8-8-8--4-4-4-4--3-3-3-3-|

Outro chorus (Riff 7)

G:--------------------------------------------------------------------| 
D:--------------------------------------------------------------------| 
A:----------------------------------3-3-3-3-3-3/-6-6------------------|
E:-4-4-4-4-4-4-4-4-4-4-4-4-4-3-3-3--------------------4-4-4-4-4-4-4-3-| 

G:--------------------------------------------------------------------| 
D:--------------------------------------------------------------------| 
A:--------------------------------------------------------------------| 
E:-4-4-4-4-4-4-4-4--3-3-3-3-3-3-3-3--4-4-4-4-4-4-4-4--3-3-3-3-3-3-3-3-| 

G:----------------------------------| 
D:----------------------------------| 
A:-3-3-3-3-3-3-3-3------------------| 
E:--------------------4----3------8-| 

Order

Riff 1 x 1
Riff 2 x 1
Riff 3 x 4
Riff 4 x 2
Riff 2 x 1
Riff 5 x 1
Riff 6 x 4
Pause
Riff 4 x 2
Riff 7 x 1

ok iīm oscar or trpelonchaspunk please send me your comments to maxz6@hotmail.com
or to my bandīs mail orta_fanmail@yahoo.com.mx
rate this tab please
thanks and byke!
Comments