Marilyn Manson - Sweet Dreams Bass Chords & Tabs

 

Sweet Dreams Bass Chords & Tabs

Marilyn Manson Chords & Tabs

Version: 1 Type: Bass Tab 0 ratings
1 star 2 stars 3 stars 4 stars 5 stars
comments

Sweet Dreams Bass Bass Tab

                                 Sweet Dreams                                   


                                                                      Marilyn Manson
Bass
There's maybe a few things wrong during the solo, but i think the rest is perfect

                                          5x                            
G||-------------------|-------------------||---------------------------|
D||*------------------|------------------*||*--------------------------|
A||*------------------|------------------*||*--3--3--3--3--3--3--3--3--|
E||-------------------|-------------------||---------------------------|


                           2x                           
---------------------------||--------------------------|
--------------------------*||--------------------------|
--------------------------*||--3--3--3--3--3--3--3--3--|
--4--4--4--4--3--3--3--3---||--------------------------|


                                                      
--------------------------|--------------------------|
--------------------------|--------------------------|
--------------------------|--------------------------|
--4--4--4--4--3--3--3--3--|--4--4--4--4--4--4--4--4--|


                                                      
--------------------------|--------------------------|
--------------------------|--------------------------|
--------------------------|--3--3--3--3--3--3/-6--6--|
--4--4--4--4--4--3--3--3--|--------------------------|


                                                      
--------------------------|--------------------------|
--------------------------|--------------------------|
--------------------------|--------------------------|
--4--4--4--4--4--4--4--3--|--4--4--4--4--4--4--4--4--|


                                                                      7x
--------------------------||--------------------|---------------------||
--------------------------||*-------------------|--------------------*||
--------------------------||*--3----------------|--------------------*||
--3--3--3--3--3--3--3--3--||--------------------|--4--------3---------||


                                                       2x
---------------------------|---------------------------||
*--------------------------|--------------------------*||
*--3--3--3--3--3--3--3--3--|--------------------------*||
---------------------------|--4--4--4--4--3--3--3--3---||


                                                      
--------------------------|--------------------------|
--------------------------|--------------------------|
--3--3--3--3--3--3--3--3--|--------------------------|
--------------------------|--4--4--4--4--3--3--3--3--|


                                                      
--------------------------|--------------------------|
--------------------------|--------------------------|
--------------------------|--------------------------|
--4--4--4--4--4--4--4--4--|--4--4--4--4--4--3--3--3--|


                                                      
--------------------------|--------------------------|
--------------------------|--------------------------|
--3--3--3--3--3--3/-6--6--|--------------------------|
--------------------------|--4--4--4--4--4--4--4--3--|


                                                      
--------------------------|--------------------------|
--------------------------|--------------------------|
--------------------------|--------------------------|
--4--4--4--4--4--4--4--4--|--3--3--3--3--3--3--3--3--|

[ Tab from: http://www.guitartabs.cc/tabs/m/marilyn_manson/sweet_dreams_bass_btab.html ]
                                                        2x
|---------------------------|---------------------------||
|*--------------------------|--------------------------*||
|*--------------------------|--------------------------*||
|---4--4--4--4--4--4--4--4--|--3--3--3--3--3--3--3--3---||


                                                                            
--------------------------|---------------------|--------------------------|
--------------------------|---------------------|--------------------------|
--------------------------|---------------------|--3--3--3--3--3--3--3--3--|
--4--4--4--4--4--4--4--4--|--3--3--3------------|--------------------------|


                                                      
--------------------------|--------------------------|
--------------------------|--------------------------|
--------------------------|--3--3--3--3--3--3--3--3--|
--4--4--4--4--3--3--3--3--|--------------------------|


                                                      
--------------------------|--------------------------|
--------------------------|--------------------------|
--------------------------|--3--3--3--3--3--3--3--3--|
--4--4--4--4--3--3--3--3--|--------------------------|


                                                      
--------------------------|--------------------------|
--------------------------|--------------------------|
--------------------------|--3--3--3--3--3--3--3--3--|
--4--4--4--4--3--3--3--3--|--------------------------|


                                                      
--------------------------|--------------------------|
--------------------------|--------------------------|
--------------------------|--3--3--3--3--3--3--3--3--|
--4--4--4--4--3--3--3--3--|--------------------------|


                                                        
--------------------------||---------------------------|
--------------------------||*--------------------------|
--------------------------||*--3--3--3--3--3--3--3--3--|
--4--4--4--4--3--3--3--3--||---------------------------|


                           2x                            
---------------------------||---------------------------|
--------------------------*||*--------------------------|
--------------------------*||*--3--3--3--3--3--3--3--3--|
--4--4--4--4--3--3--3--3---||---------------------------|


                           2x                           
---------------------------||--------------------------|
--------------------------*||--------------------------|
--------------------------*||--3--3--3--3--3--3--3--3--|
--4--4--4--4--3--3--3--3---||--------------------------|


                                                      
--------------------------|--------------------------|
--------------------------|--------------------------|
--------------------------|--------------------------|
--4--4--4--4--3--3--3--3--|--4--4--4--4--4--4--4--4--|


                                                      
--------------------------|--------------------------|
--------------------------|--------------------------|
--------------------------|--3--3--3--3--3--3--6/-6--|
--4--4--4--4--4--3--3--3--|--------------------------|


                                                        
--------------------------||---------------------------|
--------------------------||*--------------------------|
--------------------------||*--------------------------|
--4--4--4--4--4--4--4--3--||---4--4--4--4--4--4--4--4--|


                                                                      
---------------------------||--------------------|-------------------|
--------------------------*||--------------------|-------------------|
--------------------------*||--3-----------------|-------------------|
--3--3--3--3--3--3--3--3---||-----------4--------|--3----------------|


                                       
------------------|------------------||
------------------|------------------||
------------------|------------------||
------------------|------------------||


Comments