Marilyn Manson - Suicide Is Painless Chords & Tabs

 

Suicide Is Painless Chords & Tabs

Marilyn Manson Chords & Tabs

Version: 1 Type: Bass Tab 0 ratings
1 star 2 stars 3 stars 4 stars 5 stars
comments

Suicide Is Painless Bass Tab

Standard Tuning 

Marilyn Manson - Suicide is Painless 

Very slow!!! 

Ring out for ca. 5 seconds. 
G:|-----------------------------|
D:|--------2---0-------2----0---|
A:|2---2--------2------------2--| 
E:|-----------------------------|

BRIDGE 0:30 
G:|---|
D:|---|
A:|2--| 
E:|---|

CHORUS: 0:33 
G:|------------------|
D:|2---0-----5---5-4-|
A:|-----2------------| 
E:|------------------|

BRIDGE 0:53
[ Tab from: http://www.guitartabs.cc/tabs/m/marilyn_manson/suicide_is_painless_btab.html ]
0:58 
G:|------------------|
D:|2---0-----2---0---|
A:|-----2----------2-| 
E:|------------------|

BRIDGE 1:18

CHORUS: 1:21 

BRIDGE 1:41

0:58 
G:|------------------|
D:|2---0-----2---0---|
A:|-----2----------2-| 
E:|------------------|

BRIDGE 2:06

CHORUS: 2:09 

BRIDGE 2:29

2:34 
G:|------------------|
D:|2---0-----2---0---|
A:|-----2----------2-| 
E:|------------------|

BRIDGE 2:54

CHORUS: 2:57 

BRIDGE 3:17

G:|------------|
D:|5---5-------|
A:|-----4----2-| 
E:|------------|

danieljamritsch@gmx.at
Comments