Marilyn Manson - Spin Me Right Round Chords & Tabs

 

Spin Me Right Round Chords & Tabs

Marilyn Manson Chords & Tabs

Version: 1 Type: Tab 0 ratings
1 star 2 stars 3 stars 4 stars 5 stars
comments

Spin Me Right Round Tab

Band: Marilyn Manson
Song:          Spin Me Right Round

 Tabbed by Noodles
 
Standard Tuning
[ Tab from: http://www.guitartabs.cc/tabs/m/marilyn_manson/spin_me_right_round_tab.html ]
Intro
E:3-3-3-3--------1--1-|-~3~-----~1~-~3~-----~1~--|------------------------------------------|-3-3-3-3-*-3-|
A:5-5-5-5--3-3---3--3-|-----~3~---------~5~------|-3-/-9--3-/-7-/--3-/-5--1-/-3--0-1h-1-1-1-|-5-5-5-5-*-5-|
D:5-5-5-5--5-5---3--3-|--------------------------|-3-/-9--3-/-7-/--3-/-5--1-/-3--0-1h-1-1-1-|-5-5-5-5-*-5-|
G:---------5-5--------|--------------------------|------------------------------------------|-------------|
B:--------------------|--------------------------|------------------------------------------|-------------|
E:--------------------|--------------------------|------------------------------------------|-------------|
   
                              Second Guitar (Palm mute)
                      |3-----------1-----3-----------1---|------------------------------------------|
                      |5-X8--3-----3-X4--5-X8--5-----3-X4|-7--5--3--1--0----------------------------|
                      |5-----5-X4--3-----5-----7-X4--3---|-7--5--3--1--0----------------------------|
                      |------5-----------------7---------|------------------------------------------|
                      |----------------------------------|------------------------------------------|

Chorus X2
E:-3-/-5--*--*-*--*-*--*-*-*-*-|    |-----------------------------|    |-------------------------|\
A:-5-/-7-----------------------|    |-3-/-5--*--*-*--*-*--*-*-*-*-|    |-3-----5-----7------9----| \
D:-5-/-7-----------------------| X2 |-5-/-7-----------------------| X2 |-5-X8--7-X8--9-X8--10-X8-|   ALL X2
G:-----------------------------|    |-5-/-7-----------------------|    |-5-----7-----9-----10----|  
B:-----------------------------|    |-----------------------------|    |-------------------------| /
E:-----------------------------|    |-----------------------------|    |-------------------------|/

Verse (Palm Mute)
E:-3-----------1-----3-----------1----|
A:-5-X8--3-----3-X4--5-X8--5-----3-X4-|
D:-5-----5-X4--3-----5-----7-X4--3----|
G:-------5-----------------7----------| X2
B:------------------------------------|
E:------------------------------------|

This is most of it....I'm not so sure about the number of times you play it but I'll fix it later...Enjoy
Comments