Marilyn Manson - Spade Chords & Tabs

 

Spade Chords & Tabs

Marilyn Manson Chords & Tabs

Version: 1 Type: Tab 0 ratings
1 star 2 stars 3 stars 4 stars 5 stars
comments

Spade Tab

   
Spade - Marilyn Manson
Tabbed by Tinboy

Tuning - 7 string with bottom string tuned down to A

E B G D A E A

Intro

|------------------------------------------------------------------------------------|
|------------------------------------------------------------------------------------|
|---4-4---------4-4---------7-7---------6-6------------------------------------------|
|----------4-----------4-----------5-----------4-------------------------------------|
|--------5---5-------5---5-------7---7-------5---7-----------------------------------| x2
|------------------------------------------------------------------------------------|
|------------------------------------------------------------------------------------|

Verse

|------------------------------------------------------------------------------------|
|------------------------------------------------------------------------------------|
|------------------------------------------------------------------------------------|
|-----4--------4--------5--------4---------------------------------------------------|
|---5---5----5---5----7---7----5---7-------------------------------------------------| x4
|------------------------------------------------------------------------------------|
|------------------------------------------------------------------------------------|

|------------------------------------------------------------------------------------|
|------------------------------------------------------------------------------------|
|------------------------------------------------------------------------------------|
|------------------------------------------------------------------------------------|
|---2-2-2--2-2-2---2-2-2--2-2---2-2-2-2-2-2--2-2-2--2-2-2--2-2-2-2-2-2--2-2-2--2-2---|
|---2-2-2--2-2-2---2-2-2--2-2---2-2-2-2-2-2--2-2-2--2-2-2--2-2-2-2-2-2--2-2-2--2-2---|
|---2-2-2--2-2-2---2-2-2--2-2---2-2-2-2-2-2--2-2-2--2-2-2--2-2-2-2-2-2--2-2-2--2-2---|
PM  - - -  - - -   - - -  - -   - - - - - -  - - -  - - -  - - - - - -  - - -  - -

Chorus

|------------------------------------------------------------------------------------|
|------------------------------------------------------------------------------------|
|------------------------------------------------------------------------------------|
|------------------------------------------------------------------------------------|
|---2-2-2-2--5-5-5-5--7-7-7-7--5-5-5-5-----------------------------------------------| x4
|---2-2-2-2--5-5-5-5--7-7-7-7--5-5-5-5-----------------------------------------------|
|---2-2-2-2--5-5-5-5--7-7-7-7--5-5-5-5-----------------------------------------------|

Bridge

let ring B5 chord

|------------------------------------------------------------------------------------|
|------------------------------------------------------------------------------------|
|---4-4---------4-4---------7-7---------6-6------------------------------------------|
|----------4-----------4-----------5-----------4-------------------------------------|
|--------5---5-------5---5-------7---7-------5---7-----------------------------------| x2
|------------------------------------------------------------------------------------|
|------------------------------------------------------------------------------------|

|------------------------------------------------------------------------------------|
|------------------------------------------------------------------------------------|
|------------------------------------------------------------------------------------|
|------------------------------------------------------------------------------------|
|---2-2-2-2-2-2--2-2-2--2-2-2--2-2-2-2-2-2--2-2-2--2-2-------------------------------|
|---2-2-2-2-2-2--2-2-2--2-2-2--2-2-2-2-2-2--2-2-2--2-2-------------------------------|
|---2-2-2-2-2-2--2-2-2--2-2-2--2-2-2-2-2-2--2-2-2--2-2-------------------------------|
PM  - - - - - -  - - -  - - -  - - - - - -  - - -  - -

Verse

|------------------------------------------------------------------------------------|
|------------------------------------------------------------------------------------|
|------------------------------------------------------------------------------------|
|-----4--------4--------5--------4---------------------------------------------------|
|---5---5----5---5----7---7----5---7-------------------------------------------------| x4
|------------------------------------------------------------------------------------|
|------------------------------------------------------------------------------------|

|------------------------------------------------------------------------------------|
|------------------------------------------------------------------------------------|
|------------------------------------------------------------------------------------|
|------------------------------------------------------------------------------------|
|---2-2-2--2-2-2---2-2-2--2-2---2-2-2-2-2-2--2-2-2--2-2-2--2-2-2-2-2-2--2-2-2--2-2---|
|---2-2-2--2-2-2---2-2-2--2-2---2-2-2-2-2-2--2-2-2--2-2-2--2-2-2-2-2-2--2-2-2--2-2---|
|---2-2-2--2-2-2---2-2-2--2-2---2-2-2-2-2-2--2-2-2--2-2-2--2-2-2-2-2-2--2-2-2--2-2---|
PM  - - -  - - -   - - -  - -   - - - - - -  - - -  - - -  - - - - - -  - - -  - -

Chorus
[ Tab from: http://www.guitartabs.cc/tabs/m/marilyn_manson/spade_tab.html ]
|------------------------------------------------------------------------------------|
|------------------------------------------------------------------------------------|
|------------------------------------------------------------------------------------|
|------------------------------------------------------------------------------------|
|---2-2-2-2--5-5-5-5--7-7-7-7--5-5-5-5-----------------------------------------------| x4
|---2-2-2-2--5-5-5-5--7-7-7-7--5-5-5-5-----------------------------------------------|
|---2-2-2-2--5-5-5-5--7-7-7-7--5-5-5-5-----------------------------------------------|
PM  - - - -  - - - -  - - - -  - - - -

Bridge

|------------------------------------------------------------------------------------|
|------------------------------------------------------------------------------------|
|------------------------------------------------------------------------------------|
|---7/9\7/9--x-x-x--7/9\7/9\7/9/12---------------------------------------------------|
|---7/9\7/9--x-x-x--7/9\7/9\7/9/12---------------------------------------------------|
|---5/7\5\7--x-x-x--5/7\5/7\5/7/10---------------------------------------------------|
|------------------------------------------------------------------------------------|\
                                                                                       | x2
|------------------------------------------------------------------------------------|/
|------------------------------------------------------------------------------------|
|------------------------------------------------------------------------------------|
|---7/9\7/9--x-x-x--7/9\7/9\7/9------------------------------------------------------|
|---7/9\7/9--x-x-x--7/9\7/9\7/9-7----------------------------------------------------|
|---5/7\5\7--x-x-x--5/7\5/7\5/7-7----------------------------------------------------|
|-------------------------------7----------------------------------------------------|

Bridge

let ring B5 chord

|------------------------------------------------------------------------------------|
|------------------------------------------------------------------------------------|
|---4-4---------4-4---------7-7---------6-6------------------------------------------|
|----------4-----------4-----------5-----------4-------------------------------------|
|--------5---5-------5---5-------7---7-------5---7-----------------------------------| x2
|------------------------------------------------------------------------------------|
|------------------------------------------------------------------------------------|

|----------------------------------------------7h9/10\9p7-9br-(9)\7/9h10\9--22br-----|
|------------------------------------------------------------------------------------|
|--------------------------11br-(11)\9/11-\9-----------------------------------------|
|---9/11br-(11)\9--9h11/12-----------------------------------------------------------|
|------------------------------------------------------------------------------------|
|------------------------------------------------------------------------------------|
|------------------------------------------------------------------------------------|

|------------------------------------------------------------------------------------|
|------------------------------------------------------------------------------------|
|----------4--x----------4--x-----------4--x-----------4--x--------------------------|
|------------------------------------------------------------------------------------|
|---2-2-2----------5-5-5---------7-7-7----------5-5-5--------------------------------| x2
|------------------------------------------------------------------------------------|
|------------------------------------------------------------------------------------|

Chorus

Gtr. 1
|------------------------------------------------------------------------------------|
|------------------------------------------------------------------------------------|
|------------------------------------------------------------------------------------|
|------------------------------------------------------------------------------------|
|---2-2-2-2--5-5-5-5--7-7-7-7--5-5-5-5-----------------------------------------------| x4
|---2-2-2-2--5-5-5-5--7-7-7-7--5-5-5-5-----------------------------------------------|
|---2-2-2-2--5-5-5-5--7-7-7-7--5-5-5-5-----------------------------------------------|
PM  - - - -  - - - -  - - - -  - - - -

Gtr. 2
|------------------------------------------------------------------------------------|
|------------------------------------------------------------------------------------|
|----------4--x----------4--x-----------4--x-----------4--x--------------------------|
|------------------------------------------------------------------------------------|
|---2-2-2----------5-5-5---------7-7-7----------5-5-5--------------------------------| x2
|------------------------------------------------------------------------------------|
|------------------------------------------------------------------------------------|

Outro

|------------------------------------------------------------------------------------|
|------------------------------------------------------------------------------------|
|---------4--x-x---------------------------------------------------------------------|
|------4-----------------------------------------------------------------------------|
|---2--------------------------------------------------------------------------------| x12
|------------------------------------------------------------------------------------|
|------------------------------------------------------------------------------------|

that's all

email - tinboy50@hotmail.com
Comments