Marilyn Manson - Snake Eyes And Sissies Chords & Tabs

 

Snake Eyes And Sissies Chords & Tabs

Marilyn Manson Chords & Tabs

Version: 3 Type: Bass Tab 0 ratings
1 star 2 stars 3 stars 4 stars 5 stars
comments

Snake Eyes And Sissies Bass Tab

Snake Eyes and Sissies - Marilyn Manson

By: Jon Craven (i_apathy@hotmail.com)
For questions, comments, feedback, an outline of the timing, write the above
address.

Note:
  -Played with a pick.

(4/4)(125 bpm)
Standard tuning

r = eighth rest
. = staccato note
\ = slide down
R = quarter rest
* = note held for an eighth beat

Intro: (0:13)
|--------4-----.-|--.---.-2-0-----|--------4-----.-|--.---.-2-0-----|
|2-2-2-2---2-r-2-|--2---2-----2---|2-2-2-2---2-r-2-|--2---2-----2---|
|----------------|----------------|----------------|----------------|
|----------------|----------------|----------------|----------------|

Verse 1: (x3)(0:21)
|--------4-----.-|--.---.-2-0-----|--------4-----.-|--.---.-2-0-----|
|2-2-2-2---2-r-2-|--2---2-----2---|2-2-2-2---2-r-2-|--2---2-----2---|
|----------------|----------------|----------------|----------------|
|----------------|----------------|----------------|----------------|

|--------4-----.-|--.---.-2-0-----|--------4-----.-|--.---.-0-2-0-2-|
|2-2-2-2---2-r-2-|--2---2-----2---|2-2-2-2---2-r-2-|--2---2---------|
|----------------|----------------|----------------|----------------|
|----------------|----------------|----------------|----------------|

Pre-chorus 1: (1:07)
|----------------|8-8-8-8-8-8-8-r-|----------------|--7---7---7---7\|
|5-5-5-5-5-5-5-5-|----------------|8-8-8-8-8-8-8-8-|0---0---0---0---|
|----------------|----------------|----------------|----------------|
|----------------|----------------|----------------|----------------|

Chorus: (x2)(1:14)
|----------------|----------------|----------------|--------7-7-7-7-|
|----------------|----------------|----------------|8-8-8-8---------|
|----------------|----------------|----------------|----------------|
|0-3-0-5---6-0---|0-3-0-5---6-0---|0-3-0-5---6-0---|----------------|
[ Tab from: http://www.guitartabs.cc/tabs/m/marilyn_manson/snake_eyes_and_sissies_btab_ver_3.html ]
Bridge 1: (1:30)
|----------------|----------------|----------------|----------------|
|----------------|----------------|----------------|----------------|
|----------------|----------------|----------------|--------5-*-*-*-|
|0-0-R---3-*-*-*-|0-0-R---5-*-*-*-|0-0-R---3-*-*-*-|0-0-R-----------|

Verse 1

Verse 2: (1:53)
|--------4-----.-|--.---.-2-0-----|--------4-----.-|--.---.-2-0-----|
|2-2-2-2---2-r-2-|--2---2-----2---|2-2-2-2---2-r-2-|--2---2-----2---|
|----------------|----------------|----------------|----------------|
|----------------|----------------|----------------|----------------|

|--------4-----.-|--.---.-2-0-----|--------4-----.-|--.---.-0-2-0---|
|2-2-2-2---2-r-2-|--2---2-----2---|2-2-2-2---2-r-2-|--2---2---------|
|----------------|----------------|----------------|----------------|
|----------------|----------------|----------------|----------------|

Pre-chorus 2: (2:08)
|----------------|8-8-8-8-8-8-8-r-|----------------|--7---7---7-/-\-|
|5-5-5-5-5-5-5-5-|----------------|8-8-8-8-8-8-8-8-|0---0---0-------|
|----------------|----------------|----------------|----------------|
|----------------|----------------|----------------|----------------|

Chorus (x2)

Fill: (2:31)
|----------------|----------------|
|0-*-*-*-*-*-*-*-|*-*-*-*-*-*-*-*-|
|----------------|----------------|
|----------------|----------------|

Interlude: (x8)(2:35)
|----------------|
|----------------|
|----------------|
|0-0-R---R---R---|

Bridge 1

Bridge 2: (2:58)
|----------------|----------------|----------------|----------------|
|----------------|----------------|----------------|----------------|
|----------------|----------------|----------------|--------7-5-*-*-|
|0-0-0-0-3-2-*-*-|0-0-0-0-6-5-*-*-|0-0-0-0-3-2-*-*-|0-0-0-0---------|

Verse 1
Chorus (x4)

Outro: (3:52)(hold till end)
|----------------|
|----------------|
|----------------|
|0-0-R---3-*-*-*-|
Comments