Marilyn Manson - Slutgarden Chords & Tabs

 

Slutgarden Chords & Tabs

Marilyn Manson Chords & Tabs

Version: 1 Type: Tab 0 ratings
1 star 2 stars 3 stars 4 stars 5 stars
comments

Slutgarden Tab

Slutgarden - Marilyn Manson
Tabbed by Tinboy

Tuning - 7 string with bottom string tuned to A

E B G D A E A -  (you can just use a six string with drop A tuning)

Intro/Verse

|------------------------------------------------------------------------|
|------------------------------------------------------------------------|
|------------------------------------------------------------------------|
|-----7------7----7--8-7---7-----7---------------------------------------|
|---3-5--3-3-5--3-5--6-5---5-3-3-5--8-5-8-10-----------------------------| x8
|-----------------------------------8-5-8-10-----------------------------|
|-----------------------------------8-5-8-10-----------------------------|
PM  - -  - - -  - -        - - - -  - - -

Pre-Chorus - "I can't believe, that you are for real"

volume swells
|------------------------------------------------------------------------|
|------------------------------------------------------------------------|
|------------------------------------------------------------------------|
|------------------------------------------------------------------------|
|---5v---8v---6v---5v----------------------------------------------------|
|------------------------------------------------------------------------|
|------------------------------------------------------------------------|

Chorus - "When I said 'we', you know I meant 'me'"

|------------------------------------------------------------------------|
|------------------------------------------------------------------------|
|------------------------------------------------------------------------|
|------------------------------------------------------------------------|
|---5--8-8-8-8--8-10--5-5-5-5-5-5-3-5------------------------------------| x4
|---5--8-8-8-8--8-10--5-5-5-5-5-5-3-5------------------------------------|
|---5--8-8-8-8--8-10--5-5-5-5-5-5-3-5------------------------------------|

Bridge - "I'm unsafe"

|------------------------------------------------------------------------|
|------------------------------------------------------------------------|
|------------------------------------------------------------------------|
|---6-6-6-6-6--7br-------------------------------------------------------|
|---6-6-6-6-6------------------------------------------------------------| x4
|---4-4-4-4-4------------------------------------------------------------|
|------------------------------------------------------------------------|

Verse

|------------------------------------------------------------------------|
|------------------------------------------------------------------------|
|------------------------------------------------------------------------|
|--------7------7------7------7------------------------------------------|
|---5--5---8--8---6--6---5--5--------------------------------------------| x2
|------------------------------------------------------------------------|
|------------------------------------------------------------------------|

|------------------------------------------------------------------------|
|------------------------------------------------------------------------|
|------------------------------------------------------------------------|
|-----7------7----7--8-7---7-----7---------------------------------------|
|---3-5--3-3-5--3-5--6-5---5-3-3-5--8-5-8-10-----------------------------| x4
|-----------------------------------8-5-8-10-----------------------------|
|-----------------------------------8-5-8-10-----------------------------|
PM  - -  - - -  - -        - - - -  - - -

Chorus
[ Tab from: http://www.guitartabs.cc/tabs/m/marilyn_manson/slutgarden_tab.html ]
|------------------------------------------------------------------------|
|------------------------------------------------------------------------|
|------------------------------------------------------------------------|
|------------------------------------------------------------------------|
|---5--8-8-8-8--8-10--5-5-5-5-5-5-3-5------------------------------------| x4
|---5--8-8-8-8--8-10--5-5-5-5-5-5-3-5------------------------------------|
|---5--8-8-8-8--8-10--5-5-5-5-5-5-3-5------------------------------------|

Bridge - "I'm unsafe"

|------------------------------------------------------------------------|
|------------------------------------------------------------------------|
|------------------------------------------------------------------------|
|---6-6-6-6-6--7br-------------------------------------------------------|
|---6-6-6-6-6------------------------------------------------------------| x4
|---4-4-4-4-4------------------------------------------------------------|
|------------------------------------------------------------------------|

Verse

|------------------------------------------------------------------------|
|------------------------------------------------------------------------|
|------------------------------------------------------------------------|
|--------7------7------7------7------------------------------------------|
|---5--5---8--8---6--6---5--5--------------------------------------------| x2
|------------------------------------------------------------------------|
|------------------------------------------------------------------------|

Pre-Chorus

volume swells
|------------------------------------------------------------------------|
|------------------------------------------------------------------------|
|------------------------------------------------------------------------|
|------------------------------------------------------------------------|
|---5v---8v---6v---5v----------------------------------------------------|
|------------------------------------------------------------------------|
|------------------------------------------------------------------------|

|------------------------------------------------------------------------|
|---18br-----------------------------------------------------------------|
|---15br-----------------------------------------------------------------|
|------------------------------------------------------------------------|
|------------------------------------------------------------------------|
|------------------------------------------------------------------------|
|------------------------------------------------------------------------|

Chorus

|------------------------------------------------------------------------|
|------------------------------------------------------------------------|
|------------------------------------------------------------------------|
|------------------------------------------------------------------------|
|---5--8-8-8-8--8-10--5-5-5-5-5-5-3-5------------------------------------| x8
|---5--8-8-8-8--8-10--5-5-5-5-5-5-3-5------------------------------------|
|---5--8-8-8-8--8-10--5-5-5-5-5-5-3-5------------------------------------|

|------------------------------------------------------------------------|
|-----11---10------------------------11---10-----------------------------|
|---7----7-----7-10-7-10-7-10-12---7----7-----7-10-7-10-7--7v------------|
|------------------------------------------------------------------------|
|------------------------------------------------------------------------| x3
|------------------------------------------------------------------------|
|------------------------------------------------------------------------|

that's all

email - tinboy50@hotmail.com
Comments