Marilyn Manson - Same Strange Dogma Chords & Tabs

 

Same Strange Dogma Chords & Tabs

Marilyn Manson Chords & Tabs

Version: 1 Type: Bass Tab 0 ratings
1 star 2 stars 3 stars 4 stars 5 stars
comments

Same Strange Dogma Bass Tab

   
Strange Same Dogma - Marilyn Manson
Jon Craven (nojnevarc@hotmail.com; www.geocities.com/larsramirez2001)
(enters @ 0:18)

Intro:
G:-5-5-5-5-5-5-5-5-|-5-5-5-5-5-5-5-5-|-5-5-5-5-5-5-5-5-|-5-5-5-5-5-5-3-0-|
D:-----------------|-----------------|-----------------|-----------------|
A:-----------------|-----------------|-----------------|-----------------|
E:-----------------|-----------------|-----------------|-----------------|

Riff 1:
G:-----------------|---------------|-----------------|---------------|-----------------|
D:-----------------|---------1-----|-----------------|---------------|-----------------|
A:-1h3-3-3-3-3-3-3-|-1h3-3-3---3-3-|-5h6-6-6-6-6-6-6-|-5h6-6-6-8-6-5-|-3h5-5-5-5-5-5-5-|
E:-----------------|---------------|-----------------|---------------|-----------------|

G:---------------|-3h5-5-5-5-5-5-5-|-3h5-5-5-5-5-3-0-|
D:---------------|-----------------|-----------------|
A:-3h5-5-5-6-5-3-|-----------------|-----------------|
E:---------------|-----------------|-----------------|

Riff 2:
G:-----------------|--------------|-----------------|--------------|-----------------|--------------|
D:-----------------|--------------|-----------------|--------------|-----------------|--------------|
A:-1h3-3-3-3-3-3-3-|-1h3-3-3--3-3-|-5h6-6-6-6-6-6-6-|-5h6-6-6--6-6-|-3h5-5-5-5-5-5-5-|-3h5-5-5--5-5-|
E:-----------------|--------------|-----------------|--------------|-----------------|--------------|

G:-3h5-5-5-5-5-5-5-|-3h5-5-5**-5-3-|
D:-----------------|---------------|
A:-----------------|---------------|
E:-----------------|---------------|

Riff 3: (x2)
G:-5--8--5----|-5--5-8-5----|
D:----------8-|-----------8-|
A:------------|-------------|
E:------------|-------------|

Riff 4: (x2)
G:------------8-|-----------------|
D:-10--8--------|-10------10---10-|
A:--------10----|-----------------|
E:--------------|-----8-8----8----|

Fill:
G:-----------------|-----------------|-----------------|-----------------|
D:-----------------|-----------------|-----------------|-----------------|
A:-----------------|-----------------|-----------------|-----------------|
E:-1-1-1-1-1-1-1-1-|-1-1-1-1-1-1-1-1-|-1-1-1-1-1-1-1-1-|-1-1-1-1-1-1-1-1-|

Riff 5:
G:-----------------|---------------|-----------------|---------------|-----------------|
D:-----------------|---------1-----|-----------------|---------------|-----------------|
A:-1h3-3-3-3-3-3-3-|-1h3-3-3---3-3-|-5h6-6-6-6-6-6-6-|-5h6-6-6-8-6-5-|-3h5-5-5-5-5-5-5-|
E:-----------------|---------------|-----------------|---------------|-----------------|

G:---------------|------------------------|-8h10p8-----8h10p8----|
D:---------------|-8h10-10-10-10-10-10-10-|-------h10--------h10-|
A:-3h5-5-5-6-5-3-|------------------------|----------------------|
E:---------------|------------------------|----------------------|

Riff 6:
G:-----------------|--------------|-----------------|--------------|-----------------|--------------|
D:-----------------|--------------|-----------------|--------------|-----------------|--------------|
A:-1h3-3-3-3-3-3-3-|-1h3-3-3--3-3-|-5h6-6-6-6-6-6-6-|-5h6-6-6--6-6-|-3h5-5-5-5-5-5-5-|-3h5-5-5--5-5-|
E:-----------------|--------------|-----------------|--------------|-----------------|--------------|

G:------------------------|-8h10p8-----8h10p8----|
D:-8h10-10-10-10-10-10-10-|-------h10--------h10-|
A:------------------------|----------------------|
E:------------------------|----------------------|

Riff 3 (x2)
Riff 4 (x4)
Fill

Fill 2:
G:-----------------|-----------------|
D:-----------------|-----------------|
A:-8-8-8-8-8-8-8-8-|-6-6-6-6-6-6-6-6-|
E:-----------------|-----------------|

Riff 7:
G:-----------------|--------------|-----------------|--------------|-----------------|--------------|
D:-----------------|--------------|-----------------|--------------|-----------------|--------------|
A:-1h3-3-3-3-3-3-3-|-1h3-3-3--3-3-|-5h6-6-6-6-6-6-6-|-5h6-6-6--6-6-|-3h5-5-5-5-5-5-5-|-3h5-5-5--5-5-|
E:-----------------|--------------|-----------------|--------------|-----------------|--------------|

G:------------------------|-8----8-10-10-8-10-|
D:-8h10-10-10-10-10-10-10-|---10--------------|
A:------------------------|-------------------|
E:------------------------|-------------------|

Riff 8:
G:-----------------|---------------|-----------------|---------------|-----------------|---------------|
D:-----------------|---------1-----|-----------------|---------------|-----------------|---------------|
A:-1h3-3-3-3-3-3-3-|-1h3-3-3---3-3-|-5h6-6-6-6-6-6-6-|-5h6-6-6-8-6-5-|-3h5-5-5-5-5-5-5-|-3h5-5-5-6-5-3-|
E:-----------------|---------------|-----------------|---------------|-----------------|---------------|

G:------------------------|-8h10p8----8-10-8----|
D:-8h10-10-10-10-10-10-10-|-------h10--------10-|
A:------------------------|---------------------|
E:------------------------|---------------------|

Riff 9:
G:--------------|--------------|--------------|--------------|--------------|--------------|
D:--------------|--------------|--------------|--------------|--------------|--------------|
A:-1-1-3--1-1-3-|-1-1-1-3--3-3-|-5-5-6--5-5-6-|-5-5-5-6--6-6-|-3-3-5--3-3-5-|-3-3-3-5--5-5-|
E:--------------|--------------|--------------|--------------|--------------|--------------|

G:-3h5-5-5-5-5-5-5-|-3h5-5-5-3h5-5-5-|
D:-----------------|-----------------|
A:-----------------|-----------------|
E:-----------------|-----------------|
[ Tab from: http://www.guitartabs.cc/tabs/m/marilyn_manson/same_strange_dogma_btab.html ]
Riff 10:
G:-----------------|--------------|-----------------|--------------|-----------------|--------------|
D:-----------------|--------------|-----------------|--------------|-----------------|--------------|
A:-1h3-3-3-3-3-3-3-|-1h3-3-3--3-3-|-5h6-6-6-6-6-6-6-|-5h6-6-6--6-6-|-3h5-5-5-5-5-5-5-|-3h5-5-5--5-5-|
E:-----------------|--------------|-----------------|--------------|-----------------|--------------|

G:------------------------|------8-10-8------|
D:-8h10-10-10-10-10-10-10-|-10-8--------10-8-|
A:------------------------|------------------|
E:------------------------|------------------|

Riff 3 (x2)
Riff 4 (x2)
Fill
Riff 4 (x4)
Fill
Fill 2 (x2)

Riff 11:
G:-----------------|-----------------|-----------------|-----------------|-----------------|
D:-----------------|-----------------|-----------------|-----------------|-----------------|
A:-1h3-3-3-3-3-3-3-|-1h3-3-3-1h3-3-3-|-5h6-6-6-6-6-6-6-|-5h6-6-6-5h6-6-6-|-3h5-5-5-5-5-5-5-|
E:-----------------|-----------------|-----------------|-----------------|-----------------|

G:-----------------|------------------------|---------------10-8----|
D:-----------------|-8h10-10-10-10-10-10-10-|-8h10-10-10-10------10-|
A:-3h5-5-5-3h5-5-5-|------------------------|-----------------------|
E:-----------------|------------------------|-----------------------|

Riff 12:
G:-----------------|--------------|-----------------|--------------|-----------------|--------------|
D:-----------------|--------------|-----------------|--------------|-----------------|--------------|
A:-1h3-3-3-3-3-3-3-|-1h3-3-3--3-3-|-5h6-6-6-6-6-6-6-|-5h6-6-6--6-6-|-3h5-5-5-5-5-5-5-|-3h5-5-5--5-5-|
E:-----------------|--------------|-----------------|--------------|-----------------|--------------|

G:------------------------|------8-10--8-----|
D:-8h10-10-10-10-10-10-10-|-10-8----------10-|
A:------------------------|------------------|
E:------------------------|------------------|

End:
G:--------------|--------------|--------------|--------------|--------------|--------------|
D:--------------|--------------|--------------|--------------|--------------|--------------|
A:-1-1-3--1-1-3-|-1-1-1-3--3-3-|-5-5-6--5-5-6-|-5-5-5-6--6-6-|-3-3-5--3-3-5-|-3-3-3-5--5-5-|
E:--------------|--------------|--------------|--------------|--------------|--------------|

G:-3h5-5-5-5-5-5-5-|-3h5-5-5-5-5-3-0-|------------|------------|------------|
D:-----------------|-----------------|------------|------------|------------|
A:-----------------|-----------------|-3--R--R--R-|-R--R--R--R-|-R--R--R--R-|
E:-----------------|-----------------|------------|------------|------------|
===========

Song:Strange Same Dogma
Artist:Marilyn Manson & The Spooky Kids
Album:The Family JamsIntro:
G:-----------------------------------------
D:-----------------------------------------
A:-----------------------------------------
E:4/5555555\4/555/6\555/88888888\7/888/9\888

G:------------------------------------------
D:------------------------------------------
A:------------------------------------------
E:6/7777777\6/777/8\777\4/5555555\4555/6\555
this part must be played very fast

Verse:
G:-----------------------------------
D:-----------------------------------
A:-----------------------------------
E:5-5-5-55-8-8-8-88-7-7-7-77-5-5-5-55

Bridge:
G:---------------------------------------------
D:---------------------------------------------
A:---------------------------------------------
E:5-8-5-3-5-8-5-3-5-8-5-3-5-8-5-3-55555---55555Lyrics/Song Structure:
(Intro)
Burn the witches. Burn the witches(Verse)
Don't take time to sew the stitches
Burn the witches. Burn the witches
Don't take time to sew the stitches
Hand shake, ring sign, snake eye, bite mine(Bridge)
Hand shake, ring sign, snake eye, bite mine
I don't need your hate
I decide my fate
(Intro)
Burn your bridges. Burn your bridges(Verse)
Don't take time to sew the stitches
Burn your bridges. Burn your bridges
Don't take time to sew the stitches
Levi, Crowley, Golden Dawn(Bridge)
Strange same dogma, on and on
I don't need your hate
I decide my fate
We don't viscerate
Your mind masturbates
(Intro)
Burn and burn and burn the witches(Verse)
Burn and burn and burn the witches
Burn and burn and burn the witches
Don't take time to sew the stitches
Burn the witches
Burn the witches
Burn the witches
No age, no pain, no gray hair(Bridge)
Strange same dogma, I don't care
I don't need your hate
I decide my fate
We don't viscerate
Your mind masturbates
I don't need your hate
I decide my fate
(Intro)
Burn the witches(Verse) 
Burn the witches
Don't take time to sew the stitches

Thats basically it.I think this is a really cool song to play.
If you have any questions, e-mail me.

===========

          Song: Strange Same Dogma
          Artist: Marilyn Manson
          Music by: Dasiy
          Lyrics by: Marilyn Manson
          Album: Marilyn Manson and the Spookykids
          Tabed by: Per "Pogo" Stenberg
          fanta98@hotmail.com
          
          I don't own a bass (I play guitar an synth)
          and I have played for 1 month so scream at me. 
          This one is quite hard...
          
          
          Intro
          
          -333\1/3/6\333/666\5/666/8\666\555\3/555/6\5
          --------------------------------------------
          --------------------------------------------
          --------------------------------------------
          
          
          -3333/6666/8888/10101010/13131313/15151515-
          -------------------------------------------
          -------------------------------------------
          -------------------------------------------
          
          Verse
          
          -333333/666666\555555\3333-
          ---------------------------
          ---------------------------
          ---------------------------
          
          Bridge
          
          -3-6-3-
          ------6
          -------
          -------
          
          Chours
          
          -3-3-3-3-3
          ----------
          ----------
          ----------
          
          
          thats all...
          fanta98@hotmail.com
          
          check out my guitar and keyboard tabs on
Comments