Marilyn Manson - Saint Chords & Tabs

 

Saint Chords & Tabs

Marilyn Manson Chords & Tabs

Version: 2 Type: Tab 0 ratings
1 star 2 stars 3 stars 4 stars 5 stars
comments

Saint Tab

Tabbed by ;Lozz Andon
Email     ;anotherscell@hotail.com
tuning    ;standard
song      ;sAINT
album     ;Golden age of Grotesque


this is a very cool song and with most riffs by lowery/5, it is loaded with
effects, but, when played live, it is put on high gain and trebels with scoped
mids and bass, but also for the main riff, the digitech reissue whammy is used
on a harmony setting, havent figured out which one.

the solo riff is played with no effects other than the whammy
for the first three times then a tremelo effect, fast beating, is added

main riff
e|-----------------------------------------|
B|-----------------------------------------|
G|-----------------------------------------|
D|-----------------------------------------|
A|--------888------8-8-10------------------|
E|---0--0-----0-0---------0-0-12-0--12-0-0-|
[ Tab from: http://www.guitartabs.cc/tabs/m/marilyn_manson/saint_tab_ver_2.html ]
fill
e|-----------------------------------------|
B|-----------------------------------------|
G|-----------------------------------------|
D|-----------------------------------------|
A|-----------------------------------------|
E|----00--------------00-------------------|

chorus
e|-----------------------------------------|
B|-----------------------------------------|
G|-----------------------------------------|
D|------8-8-8-8-8------12121212--55--------|
A|------8-8-8-8-8------12121212--55--------|
E|-----10-10-10-10-----10101010--77--------|

e|-----------------------------------------|
B|-----------------------------------------|
G|-----------------------------------------|
D|-----3---8-8-8-8-8---10-10--5-5----------|
A|-----3---8-8-8-8-8---10-10--5-5----------|
E|-----5--10-10-10-10--12-12--7-7----------|

solo
e|--------------/13-12--10-9---------------|
B|1/---------------------------------------|
G|-----------------------------------------|
D|-----------------------------------------|
A|-----------------------------------------|
E|-----------------------------------------|
Comments