Marilyn Manson - Saint Chords & Tabs

 

Saint Chords & Tabs

Marilyn Manson Chords & Tabs

Version: 1 Type: Tab 0 ratings
1 star 2 stars 3 stars 4 stars 5 stars
comments

Saint Tab

   
(s)AINT - Marilyn Manson - The Golden Age of Grotesque
Tabbed by Tinboy

Tuning - 7 string tuned down to A

E B G D A E A

you can just use a six string tuned down to A however

Intro/Verse

|------------------------------------------------------------------------|
|------------------------------------------------------------------------|
|------------------------------------------------------------------------|
|--------------------------5---------------------------------------------|
|--------8-8-8-8--5-0----5---5------5-5-------3-0-3----------------------| x4
|------------------------------------------------------------------------|
|---5-5---------------5---------5-5-------5-5----------------------------|

then wait for 2 bars and play the above twice

Pre-Chorus - "You wanted perfekt, you got your perfekt"

|------------------------------------------------------------------------|
|------------------------------------------------------------------------|
|------------------------------------------------------------------------|
|------------------------------------------------------------------------|
|---8-8-8-8-8-10-10---5-5-5-5-5-3-3--------------------------------------| x4
|---8-8-8-8-8-10-10---5-5-5-5-5-3-3--------------------------------------|
|---8-8-8-8-8-10-10---5-5-5-5-5-3-3--------------------------------------|

Chorus - "whats my name? whats my name?"

|------------------------------------------------------------------------|
|------------------------------------------------------------------------|
|------------------------------------------------------------------------|
|------------------------------------------------------------------------|
|---5-5---5-5---5-5---5--5-----------------------------------------------| x4
|---5-5---5-5---5-5---5--5-----------------------------------------------|
|---5-5---5-5---5-5---5--5-----------------------------------------------|

Bridge

(Tacet)
|------------------------------------------------------------------------|
|------------------------------------------------------------------------|
|------------------------------------------------------------------------|
|------------------------------------------------------------------------|
|---8-8-8-8-8-10-10---5-5-5-5-5-3-3--------------------------------------| x2 
|---8-8-8-8-8-10-10---5-5-5-5-5-3-3--------------------------------------|
|---8-8-8-8-8-10-10---5-5-5-5-5-3-3--------------------------------------|

Verse

|------------------------------------------------------------------------|
|------------------------------------------------------------------------|
|------------------------------------------------------------------------|
|--------------------------5---------------------------------------------|
|--------8-8-8-8--5-0----5---5------5-5-------3-0-3----------------------| x4
|------------------------------------------------------------------------|
|---5-5---------------5---------5-5-------5-5----------------------------|

Pre-Chorus
[ Tab from: http://www.guitartabs.cc/tabs/m/marilyn_manson/saint_tab.html ]
|------------------------------------------------------------------------|
|------------------------------------------------------------------------|
|------------------------------------------------------------------------|
|------------------------------------------------------------------------|
|---8-8-8-8-8-10-10---5-5-5-5-5-3-3--------------------------------------| x4
|---8-8-8-8-8-10-10---5-5-5-5-5-3-3--------------------------------------|
|---8-8-8-8-8-10-10---5-5-5-5-5-3-3--------------------------------------|

Chorus

|------------------------------------------------------------------------|
|------------------------------------------------------------------------|
|------------------------------------------------------------------------|
|------------------------------------------------------------------------|
|---5-5---5-5---5-5---5--5-----------------------------------------------| x4
|---5-5---5-5---5-5---5--5-----------------------------------------------|
|---5-5---5-5---5-5---5--5-----------------------------------------------|

Bridge

|------------------------------------------------------------------------|
|------------------------------------------------------------------------|
|------------------------------------------------------------------------|
|--------------------------5---------------------------------------------|
|--------8-8-8-8--5-0----5---5------5-5-------3-0-3----------------------| x3
|------------------------------------------------------------------------|
|---5-5---------------5---------5-5-------5-5----------------------------|

|------------------------------------------------------------------------|
|------------------------------------------------------------------------|
|------------------------------------------------------------------------|
|------------------------------------------------------------------------|
|---5-5---5-5---5-5---5--5-----------------------------------------------| x4
|---5-5---5-5---5-5---5--5-----------------------------------------------|
|---5-5---5-5---5-5---5--5-----------------------------------------------|

Pre-Chorus

|------------------------------------------------------------------------|
|------------------------------------------------------------------------|
|------------------------------------------------------------------------|
|------------------------------------------------------------------------|
|---8-8-8-8-8-10-10---5-5-5-5-5-3-3--------------------------------------| x4
|---8-8-8-8-8-10-10---5-5-5-5-5-3-3--------------------------------------|
|---8-8-8-8-8-10-10---5-5-5-5-5-3-3--------------------------------------|

Chorus

|------------------------------------------------------------------------|
|------------------------------------------------------------------------|
|------------------------------------------------------------------------|
|------------------------------------------------------------------------|
|---5-5---5-5---5-5---5--5-----------------------------------------------| x8
|---5-5---5-5---5-5---5--5-----------------------------------------------|
|---5-5---5-5---5-5---5--5-----------------------------------------------|

thats all

email - tinboy50@hotmail.com
Comments