Marilyn Manson - Rock Is Dead Chords & Tabs

 

Rock Is Dead Chords & Tabs

Marilyn Manson Chords & Tabs

Version: 1 Type: Tab 0 ratings
1 star 2 stars 3 stars 4 stars 5 stars
comments

Rock Is Dead Tab

   
Marilyn Manson
Rock is Dead

Tabbed by:fatass69er43@hotmail.com

Tuning Low to High= D,A,D,G,B,E


E---------------------------------------------    
B---------------------------------------------    
G------------------------------2-------------     
D---4-4---4-4---4-4---4-4/5---------------      
A---4-4---4-4---4-4---4-4/5---------------       
D---2-2---2-2---2-2---2-2/3----------------
Repeat top 4 times
[ Tab from: http://www.guitartabs.cc/tabs/m/marilyn_manson/rock_is_dead_tab.html ]
E-------------------------------------------------------------------------------
B-------------------------------------------------------------------------------
G--2-5-7--2-5-7---6-4-6-4---6-4-6-4---------------------------------------------
D--2-5-7--2-5-7---4-2-4-2---4-2-4-2---9-7-9-7---9-7-9-7---7-6-7-6---7-6-7-6-----
A--0-3-5--0-3-5-----------------------7-5-7-5---7-5-7-5---5-4-5-4---5-4-5-4-----
D-------------------------------------------------------------------------------

E-------------------------------
B-------------------------------
G-------------------------------
D--6-6-6-6-6-6---9-9-9-9---
A--4-4-4-4-4-4---7-7-7-7---
D-------------------------------

Fairly easy after u get the hang of it, if you don't know how the strumming goes listien to the song
& find out 
if yours sounds better or if u think there should be something different in there e-mail me at
fatass69er43@hotmail.com

Comments