Marilyn Manson - Rock Is Dead Chords & Tabs

 

Rock Is Dead Chords & Tabs

Marilyn Manson Chords & Tabs

Version: 4 Type: Bass Tab 0 ratings
1 star 2 stars 3 stars 4 stars 5 stars
comments

Rock Is Dead Bass Tab

the intro/main riff goes:

  G|-----------------|------------------|
  D|-----------------|------------------|
  A|-----------------|------------------|
  E|-2-x-2-x-2-x-2-5-|-2-x-2-x-2-/9-7-4-|

the bridge is:

  G|-----------------|------------------|-----------------|
  D|-----------------|------------------|-----------------|
  A|-----------------|-3------5---------|3-----5----------|
  E|---3-------------|-------x------5---|-----x-----------|

and the main chorus:
[ Tab from: http://www.guitartabs.cc/tabs/m/marilyn_manson/rock_is_dead_btab_ver_4.html ]
  G|-----------------|------------------|-----------------|-----------------|
  D|-----------------|------------------|-----------------|-----------------|
  A|-9----x-7---9--7-|-9----x-7---9--7--|-7----x-5---7--5-|-7----x-5---7--5-|
  E|-----------------|------------------|-----------------|-----------------|

  G|-----------------|------------------|-----------------|-----------------|
  D|-----------------|------------------|-----------------|-----------------|
  A|-5----x-4---5--4-|-5----x-4---5--4--|-4-4-4-4-4-4-----|-7-7-7-7-7-7-----|
  E|-----------------|------------------|-----------------|-----------------|

and the song order is:


intro/main riffx4
bridgex1
main chorusx1
wait for a bit
intro/main riff x2
wait for a bit
intro/main riffx2
bridgex1
main chorusx1
wait 
intro/main riffx4
bridgex1
main chorusx2

this is my first tabs ever so if it sounds wrong or u have any complaints plz
feel free to e-mail me at suck-my-hairy-balls@my house.com if u have anything
nice to say plz e-mail me at bundyvalentine@hotmail.com
Comments