Marilyn Manson - Rock Is Dead Chords & Tabs

 

Rock Is Dead Chords & Tabs

Marilyn Manson Chords & Tabs

Version: 3 Type: Bass Tab 0 ratings
1 star 2 stars 3 stars 4 stars 5 stars
comments

Rock Is Dead Bass Tab

   
Rock Is Dead Tabbed by Flo
Album: Mechanical Animals


Intro/Verse

G---------------------------------
D---------------------------------
A-------------------------9-7-4---
E:2-2-2-2-2-2-2-5-2-2-2-2---------


Bridge

G--------------------------------
D--------------------------------
A----3-5--3-5--------------------
E: 5-----5-----------------------

[ Tab from: http://www.guitartabs.cc/tabs/m/marilyn_manson/rock_is_dead_btab_ver_3.html ]
Chorus Rock Is Deader than Dead and Schock part

G----------------------------------------
D----------------------------------------
A: (9-7-9-7) ( 7-5-7-5) (5-4-5-4) 4-4-4-4
E      2x         2x        2x


Bridge2

G----------------------------------------
D----------------------------------------
A: 12-11-9-11----------------------------
E----------------------------------------


This is my first tab but i think that`s right

Have fun
Comments