Marilyn Manson - Rock Is Dead Chords & Tabs

 

Rock Is Dead Chords & Tabs

Marilyn Manson Chords & Tabs

Version: 1 Type: Bass Tab 0 ratings
1 star 2 stars 3 stars 4 stars 5 stars
comments

Rock Is Dead Bass Tab

Rock Is Dead - Marilyn Mansion |
-------------------------------

TAB: by Big M
e-mail: Big_Mx@gmx.de

Main Riff
G|-----------------|-----------------|-----------------|-----------------|
D|-----------------|-----------------|-----------------|-----------------|
A|-----------------|-----------------|-----------------|------/9--7--4---|
E|-2-x-2-x-2-x-2-x-|-2-x-2-x-2-x-5-x-|-2-x-2-x-2-x-2-x-|-2-x-------------|

Pre-Chorus
G|-----------------|-----------------|-----------------|-----------------|
D|-----------------|-----------------|-----------------|-----------------|
A|-----------------|--3--------5-----|-----------------|--3--------5-----|
E|--5--------------|---------x-------|--5--------------|---------x-------|
[ Tab from: http://www.guitartabs.cc/tabs/m/marilyn_manson/rock_is_dead_btab.html ]
Chorus
G|-----------------|-----------------|-----------------|-----------------|
D|-----------------|-----------------|-----------------|-----------------|
A|-9----x-7---9--7-|-9----x-7---9--7-|-7----x-5---7--5-|-7----x-5---7--5-|
E|-----------------|-----------------|-----------------|-----------------|

G|-----------------|-----------------|-----------------|-----------------|
D|-----------------|-----------------|-----------------|-----------------|
A|-5----x-4---5--4-|-5----x-4---5--4-|-4--4--4--4--4--4|-7--7--7--7--7--7|
E|-----------------|-----------------|-----------------|-----------------|

----------------
Song strucutre: |
----------------
Main Riff   4x
Pre-Chorus  1x
Chorus      1x
wait
Main Riff   2x
wait
Main Riff   2x
Pre-Chorus  1x
Chorus      1x
wait
Main Riff   4x
Pre-Chorus  1x
Chorus      2x

Comments