Marilyn Manson - Posthuman Chords & Tabs

 

Posthuman Chords & Tabs

Marilyn Manson Chords & Tabs

Version: 1 Type: Tab 0 ratings
1 star 2 stars 3 stars 4 stars 5 stars
comments

Posthuman Tab

   
Song: Posthuman
Artist: Marilyn Manson
Album: Mechanical Animals
As tabbed by Joe Muggah	

Verse A (Guitar 1)
e-------------------------------------------------------
B-------------------------------------------------------
G-------------------------------------------------------
D---------------------0-0-0-----------------------------
A--0-2-2-2-2-3-2-0-2---------2-0-2-0--------------------
E-------------------------------------------------------

Verse B (Guitar 2)
e---------------7-------------------------7-------------
B-------------------------------------------------------
G-------------------------------------------------------
D--9/10\9--9\7------x-x-x-x--9/10\9--9\7-----x-x-x-x----
A-------------------x-x-x-x------------------x-x-x-x----
E-------------------x-x-x-x------------------x-x-x-x----

Chorus A (Guitar 1)
e-------------------------------------------------------
B-------------------------------------------------------
G--7----5----4-4--4-4-4--4-4--4-4-4---------------------
D--7----5----4-4--3-3-3--4-4--3-3-3---------------------
A--5----3----2-2---------2-2----------------------------
E-------------------------------------------------------
("Show me the dead stars...")
[ Tab from: http://www.guitartabs.cc/tabs/m/marilyn_manson/posthuman_tab.html ]
Chorus B (Guitar 2)
e-------------------------------------------------------
B-------------------------------------------------------
G------------------4--4-4--4-4-4--4-4--4-4-4------------
D-------2/4--2-2h4----4-4--3-3-3--4-4--3-3-3------------
A--0h2----------------2-2---------2-2-------------------
E-------------------------------------------------------

Bridge
e--14---------------------------------------------------
B------12--12h14p12h15p12-(x4)--------------------------
G-------------------------------------------------------
D-------------------------------------------------------
A-------------------------------------------------------
E-------------------------------------------------------
("God is a number...")

Verse A
Verse A, B
Verse A (bass), B
Chorus A, B
Rest
Verse A
Verse A (bass), B
Chorus A, B
Bridge
Rest
Bridge (gradually louder)
Chorus A, B
Verse A
===========posthuman  -  marilynmanson 
mechanical animals 
tabbed by jonden@ix.netcom.com

part 1 (main riff)
E-------7-
B---------
G---------
D--9~-7---
A---------
E---------

part 2
-----------------------------------------
-----------------------------------------
-----------------------------------------
-12-12-12-12-10-10-10-10-9-9-9-9-9-9-9-9-
-12-12-12-12-10-10-10-10-9-9-8-8-9-9-8-8-
-10-10-10-10-8 -8 -8 -8 -7-7-7-7-7-7-7-7-


part 3 close to end, might be keyboard
-14----------------
----14-15-14-15-14-
-------------------
-------------------
-------------------
-------------------
Comments