Marilyn Manson - Nobodies Chords & Tabs

 

Nobodies Chords & Tabs

Marilyn Manson Chords & Tabs

Version: 1 Type: Tab 0 ratings
1 star 2 stars 3 stars 4 stars 5 stars
comments

Nobodies Tab

   
MARILYN MANSON 
NOBODIES  


THIS IS SIMPLE AND IF YOU'VE PLAYED MANSON SONGS BEFORE YOU'LL NOTICE  
"THAT" CHORD PROGRESSION WHICH IS USED THROUGHOUT BOTH MECHANICAL 
ANIMALS AND THE LATEST ALBUM 

KEYBOARDS etc HAVE BEEN TRANSCRIBED FOR GUITAR 

"YESTERDAY......." 
------------------------------------------------------------------------------------- 
------------------------------------------------------------------------------------- 
-------5----------5------------5--------------5---------5---------5--------5-------5- 
--------------7--------------------------7-------------------7-----------------7----- 
---------------------------------------------------3------------------3-------------- 
-5---------------------5------------------------------------------------------------- 


----------------------------------------------------- 
----------------------------------------------------- 
----5------------5----------------------------------- 
-------6------------6-------------------------------- 
---------7--7---------7------------------------------ 
-0--------------------------------------------------- 


 "..NOBODIES.."(A5) 
------------------------------------------------------- 
------------------------------------------------------ 
----------------------------------------------------- 
--7--7--7--7--7--7--7--7------------------------- 
--7--7--7--7--7--7--7--7-------------------------- 
--5--5--5--5--5--5--5--5------------------------- 

"..SOMEBODIES"(C5) 
------------------------------------------------------- 
------------------------------------------------------ 
----------------------------------------------------- 
-1 0--1 0--1 0--1 0--1 0--1 0--1 0--1 0--------------- 
-1 0--1 0--1 0--1 0--1 0--1 0--1 0--1 0-------------- 
--8----8----8----8----8----8----8----8--------------- 


"..WE'RE DEAD.."(Em) 
------------------------------------------------------- 
------------------------------------------------------ 
----------------------------------------------------- 
--2---2---2---2---2---2---2---2------------------- 
--2---2---2---2---2---2---2---2---------------- 
--0---0---0---0---0---0---0---0--------------- 

"WHO WE        ARRRRRRRE "(A5)       (G5) 
               ---------------------------- 
               --------------------------- 
               ----------------------------- 
               --7--7--7--7----5--5--5--5 
               --7--7--7--7----5--5--5--5 
               --5--5--5--5----3--3--3--3 

"SOME CHILDREN DIED .."(A5) 
------------------------------------------ 
------------------------------------------ 
------------------------------------------ 
--7--7--7--7--7--7--7--7------------------ 
--7--7--7--7--7--7--7--7------------------ 
--5--5--5--5--5--5--5--5------------------ 

(C5) 
------------------------------------------------- 
------------------------------------------------- 
------------------------------------------------- 
-1 0--1 0--1 0--1 0--1 0--1 0--1 0--1 0---------- 
-1 0--1 0--1 0--1 0--1 0--1 0--1 0--1 0---------- 
--8----8----8----8----8----8----8----8----------- 

(A5) 
------------------------------------------------- 
------------------------------------------------- 
------------------------------------------------- 
--7--7--7--7--7--7--7--7------------------------- 
--7--7--7--7--7--7--7--7------------------------- 
--5--5--5--5--5--5--5--5------------------------- 

(F5) 
---------------------------------- 
---------------------------------- 
---------------------------------- 
--3--3--3--3--3--3--3--3---------- 
--3--3--3--3--3--3--3--3---------- 
--1--1--1--1--1--1--1--1---------- 

----------------------------------- 
----------------------------------- 
----------------------------------- 
----------------------------------- 
---5----( 7 )---5------------------ 
---------------------------8--7---- 
THEN GO TO FIRST SEQUENCE 

VERY END 

----------------------------------------------------- 
----------------------------------------------------- 
----------------------------------------------------- 
--7--7------7--7-------7--7------7--7---------------- 
--7--7------7--7-------7--7------7--7---------------- 
--5--5------5--5-------5--5------5--5---------------- 





Author/Artist: Marilyn Manson 
Title: The Nobodies 
Album: In The Shadow Of The Valley Of Death 
Transcribed by: RagDoll 
Email: iluvjameshetfield@metallica.com 

This may not be right but there is no one right way to do anything. 
I feel that this is pretty good. I am comfortable with it. 
This, however, being my first tab ever I'd say it is 
pretty successful at the least. 

This is just mostly a rhythm guitar part. I'm not 
all into the lead stuff but there is backup leads during 
the chorus part. It is a really cool riff too. 

Kudos to Manson And Co. for their musical 
and lyrical talent on this record. 


------------------------------------------------------------------------------ 
------------------------------------------------------------------------------ 
---5---5---5---5---5---5---5---5---5-----5-------5---5---5---5---------------- 
-7---7---7---7---7---7---7---7-------6-----6---7---7---7---7------------------ 
---------------------------------7-----7-----7-------------------------------- 
------------------------------------------------------------------------------ 
 Intro (above)                                                                 
[ Tab from: http://www.guitartabs.cc/tabs/m/marilyn_manson/nobodies_tab.html ]
------------------------------------------------------------------------------ 
------------------------------------------------------------------------------ 
---5---5---5---5---5---5---5---5---5-----5-------5---5---5---5---------------- 
-7---7---7---7---7---7---7---7-------6-----6---7---7---7---7------------------ 
---------------------------------7-----7-----7-------------------------------- 
------------------------------------------------------------------------------ 
 Verse (above) same as intro                                                   

------------------------------------------------------------------------------ 
------------------------------------------------------------------------------ 
---5---5---5---5---5---5---5---5---5-----5-------5---5---5---xx--------------- 
-7---7---7---7---7---7---7---7-------6-----6---7---7---7---7-xx--------------- 
---------------------------------7-----7-----7---------------xx--------------- 
-------------------------------------------------------------xx--------------- 
 Vesre (continued above)                                                       

------------------------------------------------------------------------------ 
------------------------------------------------------------------------------ 
------------------------------------------------------------------------------ 
-7-----10-----2-----7-----5-----7-----10-----2-----7-----5-------------------- 
-7-x8--10-x8--2-x8--7-x4--5-x4--7-x8--10-x8--2-x8--7-x4--5-x4----------------- 
-5------8-----0-----5-----3-----5------8-----0-----5-----3-------------------- 
 Chous (above)                                                                 

------------------------------------------------------------------------------ 
------------------------------------------------------------------------------ 
---5---5---5---5---5---5---5---5---5-----5-------5---5---5---5---------------- 
-7---7---7---7---7---7---7---7-------6-----6---7---7---7---7------------------ 
---------------------------------7-----7-----7-------------------------------- 
------------------------------------------------------------------------------ 
 2nd Verse (above)                                                             

------------------------------------------------------------------------------ 
------------------------------------------------------------------------------ 
---5---5---5---5---5---5---5---5---5-----5-------5---5---5---x---------------- 
-7---7---7---7---7---7---7---7-------6-----6---7---7---7---7-xx--------------- 
---------------------------------7-----7-----7---------------xx--------------- 
-------------------------------------------------------------xx--------------- 
 2nd Verse (continued above)                                                   

------------------------------------------------------------------------------ 
------------------------------------------------------------------------------ 
------------------------------------------------------------------------------ 
-7-----10-----2-----7-----5-----7-----10-----2-----7-----5-------------------- 
-7-x8--10-x8--2-x8--7-x4--5-x4--7-x8--10-x8--2-x8--7-x4--5-x4----------------- 
-5------8-----0-----5-----3-----5------8-----0-----5-----3-------------------- 
 Chorus (above)                                                                

------------------------------------------------------------------------------ 
------------------------------------------------------------------------------ 
------------------------------------------------------------------------------ 
-7-----\3-----/7-----\3-----/7-----\3-----/7-----\3-----2--------------------- 
-7-x8--\3-x8--/7-x8--\3-x8--/7-x8--\3-x8--/7-x8--\3-x8--2--------------------- 
-5-----\1-----/5-----\1-----/5-----\1-----/5-----\1-----0--------------------- 
 Interlude (above)                                      let ring               

------------------------------------------------------------------------------ 
------------------------------------------------------------------------------ 
---5---5---5---5---5---5---5---5---5-----5-------5---5---5---5---------------- 
-7---7---7---7---7---7---7---7-------6-----6---7---7---7---7------------------ 
---------------------------------7-----7-----7-------------------------------- 
------------------------------------------------------------------------------ 
 Versey Chorus (above)                                                         

------------------------------------------------------------------------------ 
------------------------------------------------------------------------------ 
---5---5---5---5---5---5---5---5---5-----5-------5---5---5---5---------------- 
-7---7---7---7---7---7---7---7-------6-----6---7---7---7---7------------------ 
---------------------------------7-----7-----7-------------------------------- 
------------------------------------------------------------------------------ 
 Versey Chorus (continued above)                                               

------------------------------------------------------------------------------ 
------------------------------------------------------------------------------ 
---5---5---5---5---5---5---5-xxxx--------------------------------------------- 
-7---7---7---7---7---7---7---xxxx--2-----7-----5------------------------------ 
-----------------------------xxxx--2-x8--7-x4--5-x4--------------------------- 
-----------------------------xxxx--0-----5-----3------------------------------ 
 Versey Chorus (continued above)                                               

------------------------------------------------------------------------------ 
------------------------------------------------------------------------------ 
------------------------------------------------------------------------------ 
-7-----10-----2-----7-----5--------------------------------------------------- 
-7-x8--10-x8--2-x8--7-x4--5-x4------------------------------------------------ 
-5------8-----0-----5-----3--------------------------------------------------- 
 Chorus (above)                                                                
Comments