Marilyn Manson - Mobscene Chords & Tabs

 

Mobscene Chords & Tabs

Marilyn Manson Chords & Tabs

Version: 6 Type: Tab 0 ratings
1 star 2 stars 3 stars 4 stars 5 stars
comments

Mobscene Tab

MARILYN MANSON - mOBSCENE
INTRO/CHORUS
e|---------------------------------------------------------------------------|
B|---------------------------------------------------------------------------|
G|---------------2-----------------------------------------------------------|
D|--2-2-2-5-5-5--2--0-2-0----0-2-0-------------------------------------------|
A|--2-2-2-5-5-5--0--0-2-0----0-2-0-------------------------------------------|
D|--2-2-2-5-5-5-----0-2-0----0-2-0-------------------------------------------|

BRIDGE 1 (PUT ON YOUR BEST SUIT...)
                                      x3                                    x1 
e|--------------------------------------|-------------------------------------|
B|--------------------------------------|-------------------------------------|
G|-------------------5-5-5-5-5-5-5-5-5--|--3-3-3-3-3-3-3-3-2-2-2-2-2-2-2-2----|
D|--7-7-7-7-7-7-7-7--5-5-5-5-5-5-5-5-5--|--3-3-3-3-3-3-3-3-2-2-2-2-2-2-2-2----|
A|--7-7-7-7-7-7-7-7--3-3-3-3-3-3-3-3-3--|--1-1-1-1-1-1-1-1-0-0-0-0-0-0-0-0----|
D|--7-7-7-7-7-7-7-7---------------------|-------------------------------------|
[ Tab from: http://www.guitartabs.cc/tabs/m/marilyn_manson/mobscene_tab_ver_6.html ]
BRIDGE 2
BE OBSCENE BE BE OBSCENE......
e|---------------------------------------------------------------------------|
B|---------------------------------------------------------------------------|
G|---------------------------------------------------------------------------|
D|--0-2-0---0-2-0------------------------------------------------------------|
A|--0-2-0---0-2-0------------------------------------------------------------|
D|--0-2-0---0-2-0------------------------------------------------------------|

OUTRO
e|---------------------------------------------------------------------------|
B|---------------------------------------------------------------------------|
G|---------------------------------------------------------------------------|
D|--2-2-2-2-5-5-5-2----------------------------------------------------------|
A|--2-2-2-2-5-5-5-2----------------------------------------------------------|
D|--2-2-2-2-5-5-5-2----------------------------------------------------------|

ORDER:
Intro x2
Verse - No Guitar
Chorus x2
Bridge 1 
Bridge 2
Verse
Chorus x2
Bridge 1
Bridge 2 x3?
Chorus
Outro
Comments