Marilyn Manson - Mobscene Chords & Tabs

 

Mobscene Chords & Tabs

Marilyn Manson Chords & Tabs

Version: 4 Type: Tab 0 ratings
1 star 2 stars 3 stars 4 stars 5 stars
comments

Mobscene Tab

   
Marilyn Manson
mOBSCENE
Tunning - Drop D(DADGBe)
This song is very easy to learn, and pretty fun to play.
It's a good song for beginers because there is no solo.  So enjoy and have fun.

Intro
e|---------------------------------------------------------------|
B|---------------------------------------------------------------|
G|---------------------------------------------------------------|
D|--2-2-2-5-5-2-7~-2-2-5-2-0-2-0---2-2-2-5-5-2-7~-2-2-5-2-0-2-0--|repeat x2
A|--2-2-2-5-5-2-7~-2-2-5-2-0-2-0---2-2-2-5-5-2-7~-2-2-5-2-0-2-0--|
D|--2-2-2-5-5-2-7~-2-2-5-2-0-2-0---2-2-2-5-5-2-7~-2-2-5-2-0-2-0--|

Verse
e|---------------------|
B|---------------------|
G|---------------------|
D|-x-x-x-x-x-x-x-x-x-x-|repeat x10
A|-x-x-x-x-x-x-x-x-x-x-|
D|-x-x-x-x-x-x-x-x-x-x-|

Pre-Chorus
e|---------------------------------------------------------------|
B|---------------------------------------------------------------|
G|---------------------------------------------------------------|
D|--2-2-2-5-5-2-7~-2-2-5-2-0-2-0---2-2-2-5-5-2-7~-2-2-5-2-0-2-0--|repeat x2
A|--2-2-2-5-5-2-7~-2-2-5-2-0-2-0---2-2-2-5-5-2-7~-2-2-5-2-0-2-0--|
D|--2-2-2-5-5-2-7~-2-2-5-2-0-2-0---2-2-2-5-5-2-7~-2-2-5-2-0-2-0--|
[ Tab from: http://www.guitartabs.cc/tabs/m/marilyn_manson/mobscene_tab_ver_4.html ]
Chorus
e|-------------------------------------------|
B|-------------------------------------------|
G|-------------------------------------------|
D|--7-7-7-7-7-7-7-7-10-10-10-10-10-10-10-10--|repeat x3
A|--7-7-7-7-7-7-7-7-10-10-10-10-10-10-10-10--|
D|--7-7-7-7-7-7-7-7-10-10-10-10-10-10-10-10--|

e|-----------------|
B|-----------------|
G|-----------------|
D|-8-8-8-8-8-8-8-8-|repeat x2
A|-8-8-8-8-8-8-8-8-|
D|-8-8-8-8-8-8-8-8-|

Post-Chorus

e|------------------------------|
B|------------------------------|
G|------------------------------|
D|--0-3-0--0-3-0--0-3-0--0-3-0--|
A|--0-3-0--0-3-0--0-3-0--0-3-0--|
D|--0-3-0--0-3-0--0-3-0--0-3-0--|

Outro
e|--------------------------------------------------------------|
B|--------------------------------------------------------------|
G|--------------------------------------------------------------|
D|--2-2-2-5-5-2-7~-2-2-5-2-0-2-0--2-2-2-5-5-2-7~-2-2-5-2-0-2-0--|
A|--2-2-2-5-5-2-7~-2-2-5-2-0-2-0--2-2-2-5-5-2-7~-2-2-5-2-0-2-0--|
D|--2-2-2-5-5-2-7~-2-2-5-2-0-2-0--2-2-2-5-5-2-7~-2-2-5-2-0-2-0--|

e|---------------------------------------------------------------------------|
B|---------------------------------------------------------------------------|
G|---------------------------------------------------------------------------|
D|-2-2-2-5-5-2-7~-2-2-5-2-0-2-0--2-2-2-5-5-2-7-7-7-7-7-7-7-7-7-7-7-7-7-7-7-7-|
A|-2-2-2-5-5-2-7~-2-2-5-2-0-2-0--2-2-2-5-5-2-7-7-7-7-7-7-7-7-7-7-7-7-7-7-7-7-|
D|-2-2-2-5-5-2-7~-2-2-5-2-0-2-0--2-2-2-5-5-2-7-7-7-7-7-7-7-7-7-7-7-7-7-7-7-7-|

e|----------------------|
B|----------------------|
G|----------------------|
D|-7-7-7-7-2-2-2-5--0-2-|
A|-7-7-7-7-2-2-2-5--0-2-|
D|-7-7-7-7-2-2-2-5--0-2-|

If there are any questions just email me at scabbedwings6298@yahoo.com
Comments