Marilyn Manson - Mobscene Chords & Tabs

 

Mobscene Chords & Tabs

Marilyn Manson Chords & Tabs

Version: 2 Type: Tab 3 ratings
1 star 2 stars 3 stars 4 stars 5 stars
comments

Mobscene Tab

Artist: M. Manson
title: mOBSCENE                          B=BEND
Tabbed By: Dustin Taylor & Fat Man
Tunning: Drop D

                          intro
E--------------------------------------------------------------------
B--------------------------------------------------------------------
G-----------------------------------------------PLAY THAT------------
D--2-2--5-2-5-2--7--------2-2-5-2- 0-2-0----------FOUR---------------
A--2-2--5-2-5-2--7-HOLD---2-2-5-2- 0-2-0-----------TIMES.------------
D  2 2  5 2 5 2  7 -------2 2 5 2  0 2 0-----------------------------

                     THE PAIN PART IN THE SONG

E--13B 13B 12----------------PLAY-----------------------------------
B-----------------------------THAT----------------------------------
G-------------------------------FOUR--------------------------------
D--------------------------------TIMES------------------------------
A----------------------------------ALSO.----------------------------
D-------------------------------------------------------------------
[ Tab from: http://www.guitartabs.cc/tabs/m/marilyn_manson/mobscene_tab_ver_2.html ]
                     YOU CAME TO SEE THE MOBSCENE PART IS THE SAME 
                     THING AS THE INTRO.
      
                       
                      CHORUS
E------------------------------------------------------------
B------------------------------------------------PLAY------------
G-------------------------------------------------THAT 4-----------
D---7-7-7-7-7-7-7-7-----10-10-10-10-10-10-10-10-----TIMES---------
A---7-7-7-7-7-7-7-7-----10-10-10-10-10-10-10-10------TOO-------
D---7 7 7 7 7 7 7 7-----10 10 10 10 10 10 10 10--------------

                     BE OBSCENE PART
E--------------------------------------------------------------
B--------------------------------------------------------------
G--------------------------------------------------------------
D--0-2-0------PLAY THAT 4 TIMES ALSO---------------------------
A--0-2-0----------------------------------------------------------
D--0 2 0------------------------------------------------------------



I AM ALMOST POSTIVE THAT IS RIGHT. THANKS
                                               -DUSTIN AND FATTY

Comments