Marilyn Manson - Mobscene Chords & Tabs

 

Mobscene Chords & Tabs

Marilyn Manson Chords & Tabs

Version: 1 Type: Tab 1 rating
1 star 2 stars 3 stars 4 stars 5 stars
comments

Mobscene Tab


Marilyn Manson - mOBSCENE

The Golden Age Of Grotesque - Track 2


INTRO

E|---------------------------------------------------------------------------|
B|---------------------------------------------------------------------------|
G|---------------2-----------------------------------------------------------|
D|--2-2-5-2-2-2--2-2-5-2-2-4-2-----------------------------------------------|
A|--2-2-5-2-2-2--0-2-5-2-2-4-2-----------------------------------------------|
E|--0-0-3-0-0-0----0-3-0-0-2-0(x4)-------------------------------------------|
      

VERSE
[ Tab from: http://www.guitartabs.cc/tabs/m/marilyn_manson/mobscene_tab.html ]
E|---------------------------------------------------------------------------|
B|---------------------------------------------------------------------------|
G|---------------------------------------------------------------------------|
D|---2-5---------------------------------------------------------------------|
A|---2-5---------------------------------------------------------------------|
E|---0-3--( 11 times)--------------------------------------------------------|
     
CHORUS
E|---------------------------------------------------------------------------|
B|---------------------------------------------------------------------------|
G|---------------2-----------------------------------------------------------|
D|--2-2-5-2-2-2--2-----------------------------------------------------------|
A|--2-2-5-2-2-2--0-----------------------------------------------------------|
E|--0-0-3-0-0-0----0-3-0-0-2-0( 4 times)-------------------------------------|
      
CHORUS

E|---------------------------------------------------------------------------|
B|---------------------------------------------------------------------------|
G|------------------5-5-5-5-5-5-5-5-----------------5-5-5-5-5-5-5-5----------|
D|--7-7-7-7-7-7-7-7-5-5-5-5-5-5-5-5-7-7-7-7-7-7-7-7-5-5-5-5-5-5-5-5----------|
A|--7-7-7-7-7-7-7-7-3-3-3-3-3-3-3-3-7-7-7-7-7-7-7-7-3-3-3-3-3-3-3-3----------|
E|--5-5-5-5-5-5-5-5-----------------5-5-5-5-5-5-5-5--------------------------|
      
POST - CHORUS

E|---------------------------------------------------------------------------|
B|---------------------------------------------------------------------------|
G|---------------------------------------------------------------------------|
D|-8-8-8-8-8-8-8-8-8-8-8-8-8-8-8---------------------------------------------|
A|-8-8-8-8-8-8-8-8-8-8-8-8-8-8-8---------------------------------------------|
E|-6-6-6-6-6-6-6-6-6-6-6-6-6-6-6---------------------------------------------|

Tabbed by Daniel Deighan (dan_tha_man_2k@yahoo.co.uk)
Comments