Marilyn Manson - Mister Superstar Chords & Tabs

 

Mister Superstar Chords & Tabs

Marilyn Manson Chords & Tabs

Version: 2 Type: Tab 0 ratings
1 star 2 stars 3 stars 4 stars 5 stars
comments

Mister Superstar Tab

TUNNING: standart

Intro 1 (acoustic):

E|------------------------------------------------------|
B|------------------------------------------------------|
G|------------------------------------------------------|
D|------------------------------------------------------|
A|-7~--7-7--------------------5~--5--5-5-5\7~----/5-5-5-|
E|----------5\8~-8--8--8-8-8----------------------------|

Intro 2 (distortion 1):

E|------------------------------------------------------|
B|------------------------------------------------------|
G|------------------------------------------------------|
D|-999999999999--777------------------------------------| 2 times
A|-777777777777--555------------------------------------|
E|------------------------------------------------------|

With: "Hey, mister superstar" you play:

E|------------------------------------------------------|
B|------------------------------------------------------|
G|------------------------------------------------------|
D|-999999999999--777------------------------------------| 4 times
A|-777777777777--555------------------------------------|
E|------------------------------------------------------|

Then LOUD:

Intro 2\Main Riff (distortion 2):

E|------------------------------------------------------|
B|------------------------------------------------------|
G|------------------------------------------------------|
D|-999999999999--777------------------------------------| 2 times
A|-777777777777--555------------------------------------|
E|------------------------------------------------------|

Then:

E|------------------------------------------------------|
B|------------------------------------------------------|
G|------------------------------------------------------|
D|-999999999999--777------------------------------------| 8 times
A|-777777777777--555------------------------------------|
E|------------------------------------------------------|
[ Tab from: http://www.guitartabs.cc/tabs/m/marilyn_manson/mister_superstar_tab_ver_2.html ]
Chorus:

E|------------------------------------------------------|
B|------------------------------------------------------|
G|------------------------------------------------------|
D|-9~----------7~---9-X-X--9-X-X--9-X-X--9-X-X--7777----| 1 times
A|-7~---10~----5~---7-X-X--7-X-X--7-X-X--7-X-X--5555----|
E|-------8~---------------------------------------------|

Then with: "Hey, mister superhate" you play:

Intro 2 (distortion 1):

E|------------------------------------------------------|
B|------------------------------------------------------|
G|------------------------------------------------------|
D|-999999999999--777------------------------------------| 8 times
A|-777777777777--555------------------------------------|
E|------------------------------------------------------|

Then chorus:

E|------------------------------------------------------|
B|------------------------------------------------------|
G|------------------------------------------------------|
D|-9~----------7~---9-X-X--9-X-X--9-X-X--9-X-X--7777----| 3 times
A|-7~---10~----5~---7-X-X--7-X-X--7-X-X--7-X-X--5555----|
E|-------8~---------------------------------------------|

Then:

E|-0-7-6/2----------------------------------------------|
B|------------------------------------------------------|
G|------------------------------------------------------|
D|------------------------------------------------------| 16 times
A|------------------------------------------------------|
E|------------------------------------------------------|

And the last riff with: "I'll kill you if I can't have you!!!"

E|------------------------------------------------------|
B|------------------------------------------------------|
G|------------------------------------------------------|
D|--999-XX-XX-77-XX-999-XX-XX-777-----------------------| 
A|--777-XX-XX-77-XX-777-XX-XX-555-----------------------|
E|------------------------------------------------------|
Comments