Marilyn Manson - Mister Superstar Chords & Tabs

 

Mister Superstar Chords & Tabs

Marilyn Manson Chords & Tabs

Version: 3 Type: Bass Tab

Mister Superstar Bass Tab

           MISTER SUPERSTAR bass tab

artist:marilyn manson
tabber:julien v

4/4

VERSE 1
*enter after 4 measures of drums
G|----------------:----------------:----------------:----------------|
D|----------------:----------------:----------------:----------------|
A|7---7---7---7---:7---7---7---7---:7---7---7---7---:x---5---5---5---|
E|----------------:----------------:----------------:----------------| x2
then til chorus
G|----------------:-----------------:----------------:----------------|
D|2---2-/-8---8---:7---0---5---2----:2---2---2---2---:x---0---0---0---|
A|----------------:-----------------:----------------:----------------|
E|----------------:-----------------:----------------:----------------|
[ Tab from: http://www.guitartabs.cc/tabs/m/marilyn_manson/mister_superstar_btab_ver_3.html ]
CHORUS                             x2                                 x2
G|----------------:----------------:----------------:----------------|
D|----------------:----------------:----------------:----------------|
A|7---7---7---7---:7---7---7---7---:3---3---3---3---:3---3---3---3---|
E|----------------:----------------:----------------:----------------|
                                   x2                                x2
G|----------------:----------------:----------------:----------------|
D|----------------:----------------:----------------:----------------|
A|5---5---5---5---:5---5---5---5---:7---7---7---7---:7---7---7---7---|
E|----------------:----------------:----------------:----------------|

VERSE 2 and 3(final)
G|----------------:----------------:----------------:----------------|
D|----------------:----------------:----------------:----------------|
A|7---7---7---7---:7---7---7---7-\-:5---*-\-3---*-\-:2---*---*---*---|
E|----------------:----------------:----------------:----------------|