Marilyn Manson - Misery Machine Chords & Tabs

 

Misery Machine Chords & Tabs

Marilyn Manson Chords & Tabs

Version: 2 Type: Tab 0 ratings
1 star 2 stars 3 stars 4 stars 5 stars
comments

Misery Machine Tab

Song: Misery Machine
Artist: Marilyn Manson
Written by: Gein,Daisy,Gacy
Lyrics by: Marilyn Manson
Album: POAAF
tabed by: Per "Pogo" Stenberg
fanta98@hotmail.com


This is a very cool song.
The only thing that is bad about it is the solo.
Daisy does only hold a note or two.
I should be a real "hammer-on"-solo.
something fast... but what is done is done.
This song has alot of cool riffs, so it is allways
fun playing along to the stereo. =)


Intro (Bass)

-----------------------------------------------------
------2-0-------2-0-------2-0------------------------
----------1---------1---------1--------3---3---5---5-
-000--------000-------000-------000--1---1---3---3---


Let this note ring.

----
----
----
-2--
-2--
-0--


Intro (Rhythm Guitar)
(*=Keyboard)

-----------------------------------------------------
-----------------------------------------------------
----/777-555-------/777-555-------/777-555----*2-----
222-/777-555-6-222-/777-555-6-222-/777-555-6---3-5/6-
222-/555-333-6-222-/555-333-6-222-/555-333-6---3-5/6-
000----------4-000----------4-000----------4---1-3/4-


Intro (Lead guitar)
(don't forget to slide)

-----------------------------------------------
-----------------------------------------------
-7--13--12--10-7--10-12--13--7--13--12--10-5/7-
-x---x---x--x--x--x---x---x--x---x---x--x--x/x-
-5--11--10--8--5--8--10--11--5--11--10--8--3/5-
-----------------------------------------------


Verse 1 (Bass)

-----------------------------------------------------
------2-0-------2-0-------2-0------------------------
----------1---------1---------1--------3---3---5---5-
-000--------000-------000-------000--1---1---3---3---


Verse 1 (Guitar)

----------------------------------------
----------------------------------------
-----------------5---------------5555---
-5---5---5--5555-----5---5---5--------6-
-5---5---5-----------5---5---5----------
-3---3---3-----------3---3---3----------


continuede

---------------------------------------------------
---------------------------------------------------
-----------------------5--------------------5555---
-<12><12><12><12>--5555----<12><12><12><12>------5-
---------------------------------------------------
---------------------------------------------------


Bridge  (Guitar)
(*=Keyboard)

-----------------------------------------------------
-----------------------------------------------------
----/777-555-------/777-555-------/777-555----*2-----
222-/777-555-6-222-/777-555-6-222-/777-555-6---3-5/6-
222-/555-333-6-222-/555-333-6-222-/555-333-6---3-5/6-
000----------4-000----------4-000----------4---1-3/4-


Bridge (Bass)

-----------------------------------------------------
------2-0-------2-0-------2-0------------------------
----------1---------1---------1--------3---3---5---5-
-000--------000-------000-------000--1---1---3---3---


Bridge (Keyboard)
This is hard to hear but there is a keyboard 
playing this in the background with a wierd effect.

--------
--------
--------
-5~5~5~-
--------
--------


Verse 2
[ Tab from: http://www.guitartabs.cc/tabs/m/marilyn_manson/misery_machine_tab_ver_2.html ]
-----------------------------------------------
-----------------------------------------------
--------------------5------------------5555----
-121212121212--5555----121212121212--5---------
-----------------------------------------------
-----------------------------------------------


continuede
-----------------------------------------------
-----------------------------------------------
--------------------5------------------5555----
-121212121212--5555----121212121212--5---------
-----------------------------------------------
-----------------------------------------------


Let it RINNNNNGGG!
(Bend the note litel after a coupel of seconds)

---
---
---
-3-
-3-
-1-


Bend the this note
(1.53)

-----
-----
-----
-12~-
-----
-----


Riff 1
(When you ride your...)

----------------
----------------
-4-7-10-9-10-9--
-4-7-10-9-10-9--
-2-5-8--7-8--7--
----------------


Break   (Keyboard)
(Beep beep)

--6--6------6--6--------------6--
-10-10-----10-10-------------10--
---------------------------------
-------7-7---------7-10-9-6-7----
-------7-7---------7-10-9-6-7----
---------------------------------


Riff 2
(2.31. Bend this note lower and lower)

----
-8b-
----
----
----
----


Riff 3
(I am...)

-------------------
-------------------
-2-5-8-7--2-5-8-12-
-2-5-8-7--2-5-8-12-
-0-3-6-5--0-3-6-10-
-------------------


Riff 3 (Keyboard)

--6--6--6--6--6--6-
-10-10-10-10-10-10-
-------------------
-------------------
-------------------
-------------------


Break 2  (Bass)
-----------------------------------------------------
------2-0-------2-0-------2-0------------------------
----------1---------1---------1--------3---3---5---5-
-000--------000-------000-------000--1---1---3---3---


Bridge  (Guitar)
(*=Keyboard)

-----------------------------------------------------
-----------------------------------------------------
----/777-555-------/777-555-------/777-555----*2-----
222-/777-555-6-222-/777-555-6-222-/777-555-6---3-5/6-
222-/555-333-6-222-/555-333-6-222-/555-333-6---3-5/6-
000----------4-000----------4-000----------4---1-3/4-


Bridge (Bass)

-----------------------------------------------------
------2-0-------2-0-------2-0------------------------
----------1---------1---------1--------3---3---5---5-
-000--------000-------000-------000--1---1---3---3---


Solo

---------------------------------------------------------
-14~14~14~14~-17~17~-14~14~14~14~14~-17~17~-20~20~20~20~-
---------------------------------------------------------
---------------------------------------------------------
---------------------------------------------------------
---------------------------------------------------------


Outro

-----------------------------------------------------
-----------------------------------------------------
----/777-555-------/777-555-------/777-555----*2-----
222-/777-555-6-222-/777-555-6-222-/777-555-6---3-5/6-
222-/555-333-6-222-/555-333-6-222-/555-333-6---3-5/6-
000----------4-000----------4-000----------4---1-3/4-


-----------------------------------------------
-----------------------------------------------
-7--13--12--10-7--10-12--13--7--13--12--10-5/7-
-x---x---x--x--x--x---x---x--x---x---x--x--x/x-
-5--11--10--8--5--8--10--11--5--11--10--8--3/5-
-----------------------------------------------


TA DA!

Comments