Marilyn Manson - Minute Of Decay Chords & Tabs

 

Minute Of Decay Chords & Tabs

Marilyn Manson Chords & Tabs

Version: 3 Type: Tab 0 ratings
1 star 2 stars 3 stars 4 stars 5 stars
comments

Minute Of Decay Tab

The minute of decay(very good song for antichrist superstar album)

Intro(Bass or electric guitar)

e--------------------------------------------|
b--------------------------------------------|
g--------------------------------------------|
d--------------------------------------------|
a--------------------------------------------|
e-4--4--4--7--7--7--7--6--7--6--0--0--0--2---|


Chorus 1

e--------------------------------------------|
b--------------------------------------------|
g--------------------------------------------|
d-5-------------------7--------End:----3-----|
a-5---(x7)---slide----7----------------3-----|
e-3-------------------5----------------1-----|
[ Tab from: http://www.guitartabs.cc/tabs/m/marilyn_manson/minute_of_decay_tab_ver_3.html ]
Bridge 1
e-------------------------------------------------------|
B-------------------------------------------------------|
G-------------------------------------------------------|
D-2-----3-----2-----3-----2-----3-----2-----3-----------|
A-2-----3-----2-----3-----2-----3-----2-----3-----------|
E-0-----1-----0-----1-----0-----1-----0-----1-----------|


Bridge 2
e-------------------------------------------------------|
B-------------------------------------------------------|
G-10-10-10-10--7-7-7--9---10-10-10-10--7-7-7--9---------|
D-10-10-10-10--7-7-7--9---10-10-10-10--7-7-7--9---------|
A--8--8--8--8--5-5-5--7----8--8--8--8--5-5-5--7---------|
E-------------------------------------------------------|


That's my first tab so enjoy it please!
Comments