Marilyn Manson - Minute Of Decay Chords & Tabs

 

Minute Of Decay Chords & Tabs

Marilyn Manson Chords & Tabs

Version: 3 Type: Bass Tab 0 ratings
1 star 2 stars 3 stars 4 stars 5 stars
comments

Minute Of Decay Bass Tab

Minute of Decay - Marilyn Manson

By: Jon Craven (i_apathy@hotmail.com)
Write me if you have questions, comments, corrections, want .midi samples of
each riff, or have a tab request.

(4/4)(91 bpm)
Standard tuning

Note:
  -Played with a pick and possibly some form of distortion in the chorus.

* - note held for an eighth beat

Intro 1 (0:00)

Intro 2 pt.1 (intro 2 pt.2/verses/pre-choruses/pre-verse/outro): (x4)(0:05)
|----------------|----------------|
|----------------|----------------|
|--------3-3-3-3-|2-3-2-----------|
|5-5-5-5---------|------1-*-1-1-3-|

Intro 2 pt.2 (x4)(0:26)
Verse 1 (x4)(0:47)
Pre-chorus 1 (x4)(1:08)
[ Tab from: http://www.guitartabs.cc/tabs/m/marilyn_manson/minute_of_decay_btab_ver_3.html ]
Choruses: (1:30)
|----------------|----------------|----------------|----------------|
|----------------|----------------|----------------|----------------|
|----------------|----------------|----------------|----------------|
|3-3-3-3-3-3-3-5-|*-*-*-*-*-*-*-*-|3-3-3-3-3-3-3-5-|*-*-*-*-*-*-*-*-|

|----------------|----------------|----------------|----------------|
|----------------|----------------|----------------|----------------|
|----------------|----------------|----------------|----------------|
|3-3-3-3-3-3-3-5-|*-*-*-*-*-*-*-*-|3-3-3-3-3-3-3-1-|*-*-*-*-*-*-*-*-|

Pre-verse (x2)(1:51)
Verse 2 (x4)(2:02)
Pre-chorus 2 (x2)(2:23)
Chorus 2 (2:34)
Bridge (rest for sixteen measures)(2:55)
Chorus 3 (3:38)
Outro (x5)(3:59)

(4:26)
|----------------|----------------|
|----------------|----------------|
|----------------|----------------|
|5-*-*-*-*-*-*-*-|*-*-*-*-*-*-*-*-|

Rest till end
Comments