Marilyn Manson - Mechanical Animals Chords & Tabs

 

Mechanical Animals Chords & Tabs

Marilyn Manson Chords & Tabs

Version: 3 Type: Tab 0 ratings
1 star 2 stars 3 stars 4 stars 5 stars
comments

Mechanical Animals Tab

   
Mechanical Animals by Marilyn Manson.

1.	Great Big White World
2.	The Dope Show
3.	Mechanical Animals
4.	Rock Is Dead
5.	Disassociative
6.	The Speed of Pain
7.	Posthuman
8.	I Want to Disappear
9.	I Don't Like The Drugs (but the drugs like me)
10.	New Model, No. 15
11.	User Friendly
12.	Fundamentally Loathsome
13.	The Last Day On Earth
14.	Coma White*

So far as I know, they're all right, but if you have any troubles or problems,
let me know.

* = has both guitar and bass tabs

The timing you'll have to get for yourself, but I've set out the structures for them
all, and far as I can tell, and I've tried to give a fair resemblance of notes, like
eighth & 16th notes are placed one space apart, whereas most  and half notes are
placed two or three spaces apart. That's as close as I can do, 'cause I'm not too
good at doing notes like that, so you'll have to listen to the album for timing...



Great Big White World.

Riff 1: intro/verse
-----------------------|
----4--3^-------4--3---|
-5---------3-5-------5-|
-----------------------|
-----------------------|
-----------------------|


Riff 2: verse style 2
---------------------------------------------------------------------|
---4-3---4-3---4----4-3---4-3---4----4-3---4-3---4----4-3---4-3---4--|
-5-----5-----5----4-----4-----4----3-----3-----3----2-----2-----2----|
---------------------------------------------------------------------|
---------------------------------------------------------------------|
---------------------------------------------------------------------|


Riff 3: pre-chorus
-------------------------------8-|
---------------------------------|
-5-5/8-10-10^-8\5-5/8-10-10^-8---|
---------------------------------|
---------------------------------|
---------------------------------|


Riff 4: chorus
--------------------------------------------------------------|
--------------------------------------------------------------|  part A
--------------------------------------------------------------|
-3-3-3-3-3-3-3-3--6-6-6-6-6-6-6-6--10-10-10-10-10-10-10-10-10-|
-3-3-3-3-3-3-3-3--6-6-6-6-6-6-6-6--10-10-10-10-10-10-10-10-10-|
-1-1-1-1-1-1-1-1--4-4-4-4-4-4-4-4---8--8--8--8--8--8--8--8--8-|

---------------------------------------------------------|
---------------------------------------------------------|   part B
---------------------------------------------------------|
-8-8-8-8-8-8-8-8-8-8--6-6-6-6-6-6-6-6-6-6--5-5-5-5-5-5-5-|
-8-8-8-8-8-8-8-8-8-8--6-6-6-6-6-6-6-6-6-6--5-5-5-5-5-5-5-|
-6-6-6-6-6-6-6-6-6-6--4-4-4-4-4-4-4-4-4-4--3-3-3-3-3-3-3-|


riff 1  x4
riff 2  x2
riff 3  x4
riff 4
riff 1  x2
riff 3  x4
riff 4a
riff 4b
riff 2  x2
riff 4a
riff 4b
riff 4a
riff 4b



The Dope Show:

Riff 1: intro
-18----19----18----19-|
----------------------|
----------------------|
----------------------|
----------------------|
----------------------|


Riff 2: chorus
------------------------------------------------------------------------------|
------------------------------------------------------------------------------|
---9-9-9-9-9-9-9-9--12-12-12-12-12-12-12-12--7-7-7-7-7-7-7-7--5-5-5-5-5-5-5-5-|
---9-9-9-9-9-9-9-9--12-12-12-12-12-12-12-12--7-7-7-7-7-7-7-7--5-5-5-5-5-5-5-5-|
---7-7-7-7-7-7-7-7--10-10-10-10-10-10-10-10--5-5-5-5-5-5-5-5--3-3-3-3-3-3-3-3-|
-0----------------------------------------------------------------------------|


Riff 3: post-chorus
----------------------------------|
----------------------------------|
----------------------------------|
----------------------------------|
-7-7-7-7-5-7---7--7-7-7-7-5-7---7-|
-------------3----------------3---|


Riff 4: post chorus part 2
------------------------------------|
------------------------------------|
-9-9-9-9--7-7-7-7--5-5-5-5----------|
-9-9-9-9--7-7-7-7--5-5-5-5--5-5-5-5-|
-7-7-7-7--5-5-5-5--3-3-3-3--5-5-5-5-|
----------------------------3-3-3-3-|


Riff 5: last verse part
------------------------------|
------------------------------|
-----------------7-7--5-5-5-4-|
-2--2--2--2-5-2--7-7--5-5-5-4-|
-2--2--2--2-5-2--5-5--3-3-3-2-|
-0--0--0--0-3-0---------------|





Mechanical Animals:

Riff 1: intro
----------------------------------|
----------------------------------|
-7/9-9-9-9-9-9--14-14-14-14/16-16-| x2
-7/9-9-9-9-9-9---x--x--x--x--x--x-|
-5/7-7-7-7-7-7--12-12-12-12/14-14-|
----------------------------------|

--------------------------------|--------------------------------|
--------------------------------|--------------------------------|
-5-----5-5-5--14-14-14-14/16-16-|-7-----7-7-7--14-14-14-14/16-16-|
-5-----5-5-5---x--x--x--x--x--x-|-7-----7-7-7---x--x--x--x--x--x-|
-3-3-3-3-3-3--12-12-12-12/14-14-|-5-3-3-5-5-5--12-12-12-12/14-14-|
--------------------------------|--------------------------------|


Riff 2: verse
----------------|----------------------|
-----17--15--20-|-------17-------------|
-16-------------|----16----16-14-14/16-|
----------------|-14-------------------|
----------------|----------------------|
----------------|----------------------|
                |__________________x4__|

Riff 4: chorus (every note hit 12 times)
---------------------|
---------------------|
-------5--------5--4-|
-5--4--5--5--4--5--4-|
-5--4--3--5--4--3--2-|
-3--2-----3--2-------|


Riff 5: post-chorus
----------------------------------------------------------|
--------------8-8--------------------------17-------------|
-9-9-9-9--7-7-x-x-7--5-5-5-5-5-5-5-5----16----16-14-14/16-|
-9-9-9-9--7-7-7-7-7--5-5-5-5-5-5-5-5-14-------------------|
-7-7-7-7--5-5-5-5-5--3-3-3-3-3-3-3-3----------------------|
----------------------------------------------------------|


Riff 6: outro
----------------------------|
----------------------------|
-9--7--5--7--7--5-5\4-4\2-2-| x2
-9--7--5--7--7--5-5\4-4\2-2-|
-7--5--3--7--5--3-3\2-2\0-0-|
----------------------------|

------------------------------------------|
------------------------------------------|
-9--12-12-12--7-9--9--12-12-12--7-9-------|  x6
-x---x--x--x--x-x--x---x--x--x--x-x--5--3-|
-7--10-10-10--5-7--7--10-10-10--5-7--5--3-|
-------------------------------------3--1-|




Rock is Dead:

Riff 1: intro
----------------------------|
----------------------------|
-----4------4------4--------|
-4-4----4-4----4-4----x-4/7-|
-4-4----4-4----4-4----x-4/7-|
-2-2----2-2----2-2----x-2/5-|


riff 2: pre-chorus:
----------------------|
----------------------|
----------------------|
-7--10--12--7--10--12-|
-7--10--12--7--10--12-|
-5---8--10--5---8--10-|


riff 3: chorus
-------------|------------|------------|--------------------------|
-------------|------------|------------|--------------------------|
------------.|.----------.|.----------.|--------------------------|
-11--9/11\9-.|.-9--7/9\7-.|.-7--6/7\6-.|-6-6-6-6-6-6--9-9-9-9-9-9-|
--9--7/ 9\7--|--7--5/7\5--|--5--4/5\4--|-4-4-4-4-4-4--7-7-7-7-7-7-|
-------------|------------|------------|--------------------------|


riff 4: chorus style 2
-------------|------------|------------|--------------------------|
-------------|------------|------------|--------------------------|
------------.|.----------.|.----------.|--------------------------|
-11--9/11\9-.|.-9--7/9\7-.|.-7--6/7\6-.|-6-6-6-6-6-6--9-9-9-9-9-9-|
--9--7/ 9\7--|--7--5/7\5--|--5--4/5\4--|-4-4-4-4-4-4--7-7-7-7-7-7-|
-------------|------------|------------|--------------------------|
|_______________________________x2_____|

riff 1  x4
riff 2
riff 3
riff 1  x4
riff 2
riff 3
riff 1  x4
riff 2
riff 4






Disassociative:

Riff 1: intro
-----0------------0-----------------------|
-------0--------3-1--------0--------------|
------------------0------0--------0-5-2-2-|
---2----------4---2----0-------2----5-2-2-|
-0--------3/5-----3--2-------3------3-0-0-|
------------------------------------------|


Riff 2: pre-chorus
---------------------------------------------------|
---------------------------------------------------|
---------------------------------------------------|
-9-9-9-9-9-9-9-9--7-7-7-7-7-7-7-7--2-2-2-2-2-2-2-2-|
-9-9-9-9-9-9-9-9--7-7-7-7-7-7-7-7--2-2-2-2-2-2-2-2-|
-7-7-7-7-7-7-7-7--5-5-5-5-5-5-5-5--0-0-0-0-0-0-0-0-|


Riff 3: chorus
----------------------------------------------------------------------------|
----------------------------------------------------------------------------|
----------------------------------------------------------------------------|
-3-3-3-3-3-3-3-3--7-7-7-7-7-7-7-7--10-10-10-10-10-10-10-10--7-7-7-7-7-7-7-7-|
-3-3-3-3-3-3-3-3--7-7-7-7-7-7-7-7--10-10-10-10-10-10-10-10--7-7-7-7-7-7-7-7-|
-1-1-1-1-1-1-1-1--5-5-5-5-5-5-5-5---8--8--8--8--8--8--8--8--5-5-5-5-5-5-5-5-|


Riff 4: bridge
-------------------------|
-------------------------|
---5---5---4---5---4---4-|
-------------------------|
-5---5---5---5---5---5---|
-------------------------|


Riff 5: pre-chorus style 2
----------------------------------------------------------------------------|
----------------------------------------------------------------------------|
----------------------------------------------------------------------------|
-9-9-9-9-9-9-9-9--14-14-14-14-14-14-14-14--7-7-7-7-7-7-7-7--3-3-3-3-3-3-3-3-|
-9-9-9-9-9-9-9-9--14-14-14-14-14-14-14-14--7-7-7-7-7-7-7-7--3-3-3-3-3-3-3-3-|
-7-7-7-7-7-7-7-7--12-12-12-12-12-12-12-12--5-5-5-5-5-5-5-5--1-1-1-1-1-1-1-1-|

riff 1  x2
pause
riff 1  x2
riff 2  x2
riff 3  x2
riff 4
riff 1  x3
riff 3  x2
riff 5  x2
riff 3  x4




The Speed of Pain:

This one has a bunch of chords, so I'll just put the lyrics and match them up.
I've only put the chords, so the part with the "lie to me... etc.. isn't in here,
you'll have to get someone else to do it. I'm not going to try, it's too layered
for me"


E-0-|-0-|-0-|-3-|-2-|---|
B-0-|-1-|-0-|-3-|-2-|---|
G-0-|-0-|-2-|-4-|-3-|---|
D-2-|-2-|-2-|-5-|-4-|-3-|
A-2-|-3-|-0-|-5-|-4-|-3-|
E-0-|---|---|-3-|-2-|-1-|
  Em   C  A   G   F#  F5


Em        C            Em                  A
They slit our throats  like   we  were flo-wers

Em           G         F#            Em
And our milk has been  Dev - o - u - red


A                    Em
But when you want it goes away to fast

       A                 Em
Times you hate it always seem to last

A                                   C
Just remember when you think you're free

   Em                 G        F#       F5
The crack inside your fuck-ing heart is me

Em          C
And I Wanna outrace the speed of pain

Em           C
For ano-ther day


    Em       C                Em             A
And I wish I could sleep  but I can't lay on my back

  Em                   G
Cause there's a knife  for everyday

     F#         Em
That I've known You


Intro
Intro
Verse
Pre-Chorus
Chorus
Verse
Pre-Chorus
Chorus






Posthuman:
Riff 1: verse
------------------------------|
------------------------------|
------------------------------|
------------------0-0-0-0-0-0-|
-0-2-2-2-3-2-0-2--------------|
------------------------------|


riff 2: chorus
------------------------------|
------------------------------|
-7--5--4-4--4-4-4--4-4--4-4-4-|
-7--5--4-4--3-3-3--4-4--3-3-3-|
-5--3--2-2---------2-2--------|
------------------------------|


riff 3: bridge
-14----------------------14---------------------|
-----12--12-14-12-15-12------12--12-14-12-15-12-|
------------------------------------------------|
------------------------------------------------|
------------------------------------------------|
------------------------------------------------|


Verse A
Verse A, B
Verse A (bass), B
Chorus A, B
Rest
Verse A
Verse A (bass), B
Chorus A, B
Bridge
Rest
Bridge (gradually louder)
Chorus A, B
Verse A








I Wanna Disappear:

Riff 1: intro/verse
------------------------------------|------------------4-4-4-4-4-4-|
------------------------------------|------------------------------|
------------------------------------|------------------------------|
-2-2-2-2-5-2-2-2--------------------|-2-2-2-2-5-2-2-2--------------|
-2-2-2-2-5-2-2-2--11-11-11-11-11-11-|-2-2-2-2-5-2-2-2--------------|
-0-0-0-0-3-0-0-0--------------------|-0-0-0-0-3-0-0-0--------------|
|_____________________________x4____|________________________x4____|

riff 2: pre-chorus
----------------------------------|
----------------------------------|
----------------------------------|
-7-7-7-7-7-7-7-7--4-4-4-4-4-4-4-4-|
-7-7-7-7-7-7-7-7--4-4-4-4-4-4-4-4-|
-5-5-5-5-5-5-5-5--2-2-2-2-2-2-2-2-|


riff 3: chorus
------------------|---------------------------------------------------|
------------------|---------------------------------------------------|
-8-8-6-8--11-11-8-|-9-9-9-9-9-9-9-9--6-6-6-6-6-6-6-6--8-8-8-8-8-8-8-8-|
-8-8-6-8--11-11-8-|-9-9-9-9-9-9-9-9--6-6-6-6-6-6-6-6--8-8-8-8-8-8-8-8-|
-6-6-4-6--9--9--6-|-7-7-7-7-7-7-7-7--4-4-4-4-4-4-4-4--6-6-6-6-6-6-6-6-|
------------------|---------------------------------------------------|
|____________X3___|

---------------------------------------------------|
---------------------------------------------------|
-4-4-4-4-4-4-4-4--6-6-6-6-6-6-6-6------------------|
-4-4-4-4-4-4-4-4--6-6-6-6-6-6-6-6--7-7-7-7-7-7-7-7-|
-2-2-2-2-2-2-2-2--4-4-4-4-4-4-4-4--7-7-7-7-7-7-7-7-|
-----------------------------------5-5-5-5-5-5-5-5-|


Riff 4: post chorus
-------------------------------------------------|
-9\8\7-3--1-3-3----------9\8\7-3--1-3-3----------|
-------------------------------------------------|(sorry, don't have the little
-----------------x-x-x-x-----------------x-x-x-x-| solo thing after the 2nd
-----------------x-x-x-x-----------------x-x-x-x-| chorus)
-----------------x-x-x-x-----------------x-x-x-x-|


riff 1
riff 2
riff 3
riff 4  x2
riff 1  (cut out fourth repeat of second measure)
riff 2
riff 3
riff 4  x2
pause
riff 3




I Don't Like the Drugs (But the Drugs Like Me):

Riff 1: intro
-----------------|
-----------------|
-----------------|
-4-4----4-4--7-7-|
-4-4----4-4--7-7-|
-2-2----2-2--5-5-|

[ Tab from: http://www.guitartabs.cc/tabs/m/marilyn_manson/mechanical_animals_tab_ver_3.html ]
Riff 2: pre-verse
-------------------------------|-------------------------9-9-9-9-|
---------------------------1-2-|---------------------------------|
-4-2-4--2-4-4-2-4-4-2-4--4-----|-4-2-4--2-4-4-2-4-4-2-4----------|
-------------------------------|---------------------------------|
-------------------------------|---------------------------------|
-------------------------------|---------------------------------|


riff 3: verse
------------------------|------------------------|
------------------------|------------------------|
-4-2-4--2-4-4-2-4-4-2-4-|-4-2-4--2-4-4-2-4-4-2-4-|  x4
------------------------|------------------------|
------------------------|------------------------|
------------------------|------------------------|


riff 4: (pre-chorus is some keys ad I think this:
-------------------|-----------------|
-----12------------|-----12----------|
-13------12--11-10-|-13------12------|
-------------------|-------------4-7-|
-------------------|-------------4-7-|
-------------------|-------------2-5-|
|____________x3____|


riff 5: chorus
----------------------------------------|------------|
----------------------------------------|------------|
----------2-4----------4-2----------2-4-|--------2-2-|
-4--4--4--2-4--4--4--4-4-2--4--4--4-2-4-|-4-4----2-2-|
-4--4--4--0-2--4--4--4-2-0--4--4--4-0-2-|-4-4----0-0-|
-2--2--2-------2--2--2------2--2--2-----|-2-2--------|

riff 1
riff 2
riff 3  x4
riff 4
riff 5
riff 3  x4
riff 4
riff 5
pause (there's a hole... feelin' fine)
riff 1  x2
riff 5 variation once or twice




New Model No. 15:

Riff 1: chorus
--------------------------------------------------------|
--------------------------------------------------------|
--------------------------------------------------------|
-2--4-2-4--4-2-2-4-4-2--4-2-2-4-4-2--4-2-2-4-4-2--7-7-7-|
-2--4-2-4--4-2-2-4-4-2--4-2-2-4-4-2--4-2-2-4-4-2--7-7-7-|
-0--2-0-2--2-0-0-2-2-0--2-0-0-2-2-0--2-0-0-2-2-0--5-5-5-|

riff 2: verse
-------------------------------------------------------|
-------------------------------------------------------|
-------------------------------------------------------|
-----------------7------------7------------7-----7-7-7-|
-7--9-7-9--9-7-7---7-9--9-7-7---7-9--9-7-7---7-9-------|
-------------------------------------------------------|

riff 3: pre-chorus
------------|
------------|
-6--9--4--2-|
-6--9--4--2-|
-4--7--2--0-|
------------|

riff 4: bridge
---------------------------------------------------------|
---------------------------------------------------------|
---------------------------------------------------------|
-9-9-9-9--9-9-7-7-7-7--7-7-9-9-9-9--5-5-5-5--5-5-7-7-7-7-|
-9-9-9-9--9-9-7-7-7-7--7-7-9-9-9-9--5-5-5-5--5-5-7-7-7-7-|
-7-7-7-7--7-7-5-5-5-5--5-5-7-7-7-7--3-3-3-3--3-3-5-5-5-5-|

riff 5: verse style 2
----------------------------------------------------|
----------------------------------------------------|
-----------------------------------------6--9--4--2-|
-4-4--4-4--4-4--4-4--4-4--4-4--4-4--4-4--6--9--4--2-|
-4-4--4-4--4-4--4-4--4-4--4-4--4-4--4-4--4--7--2--0-|
-2-2--2-2--2-2--2-2--2-2--2-2--2-2--2-2-------------|

riff 6: end
------------------------------|
------------------------------|
------------------------------|
--------------------------4-4-|
--------------------------4-4-|
-0-0-0-0-0-0-0-0-0-0-0-0--2-2-|


riff 1
riff 2
riff 3
riff 1  x3
riff 2
riff 3
riff 1  x4
riff 4  x2
pause
riff 5
riff 1  x6




User Friendly:

Riff 1: pre-chorus
-12----------12-----12----------12----15----|-----|
----12-15-12----12-----12-15-12----12----12-|-----|
--------------------------------------------|-----|
--------------------------------------------|-x-x-|
--------------------------------------------|-x-x-|
--------------------------------------------|-x-x-|
|______________________________________x2___|

riff 2: chorus
--------------------------------------------------------------------|
--------------------------------------------------------------------|
-4-4-4-4-4-4-4-4--6-6-6-6-7-7-9-9--4-4-4-4-4-4-4-4--6-6-6-6-7-7-9-9-|
-4-4-4-4-4-4-4-4--6-6-6-6-7-7-9-9--4-4-4-4-4-4-4-4--6-6-6-6-7-7-9-9-|
-2-2-2-2-2-2-2-2--4-4-4-4-5-5-7-7--2-2-2-2-2-2-2-2--4-4-4-4-5-5-7-7-|


riff 3: post chorus
---------------------------|
---------------------------|
-9-9--9-7--11-11--11-9--9^-|
-9-9--9-7--11-11--11-9-----|
-7-7--7-5---9--9---9-7-----|
---------------------------|


riff 4: bridge chorus with the electronic voice)
-7-----10--7-----7-------|
---7-8-------7-7---------| x4
--------------------9--7-|
-------------------------|
-------------------------|
-------------------------|


Intro
Verse (bass)
Riff 1
Riff 2  x2
Riff 3
Verse
Riff 1
Riff 2  x2
Riff 3
Riff 4  x4
Riff 2  x2





Fundamentally Loathsome:

Okay. I don't do solos, but, I've found one online somewhere, can't remember the site or
person, but as soon as I do, I'll get it. The verse and chorus, until the solo, is a lot
of piano/keyboard music, so I'm not going to do that either.


----------------------------------------------------------12-12-14--12^--12-14-|
-------------------------------------------------------12----------------------|
------------------------------------------12^^--9-9-9--------------------------|
-5-7-5---------------------7-9-7-9-11-12---------------------------------------|
-------7-5-------0-4/7--7------------------------------------------------------|
-----------7-5-0---------------------------------------------------------------|

-12-10-12-12/14-14-14-12-10-12^-10--------------------------------------------|
-----------------------------------12--8-7-8-7-8-10--10--10-8------9----11----|
---------------------------------------------------------------9-9---11----13-|
------------------------------------------------------------------------------|
------------------------------------------------------------------------------|
------------------------------------------------------------------------------|

-------------12/14-14-14-16-14-12-10^-12-10------------------------------------|
--------------------------------------------12^-10-11-10-11-10-----------------|
-9-11/12^-9^---------------------------------------------------12-9-8/9--3/4^^-|
-------------------------------------------------------------------------------|
-------------------------------------------------------------------------------|
-------------------------------------------------------------------------------|

-------------------------------------------|
-------------------------------------------|
-0-1/2-4-7-9-11/12-12-11-12/14-12-12^^^^^^-|
-------------------------------------------|
-------------------------------------------|
-------------------------------------------|





T H E  L A S T  D A Y  O N  E A R T H :

Riff 1: intro (played on synth or something, but the guitar sounds just fine...)
-------9-----9---------9-----9---|
---7-----7-----7---7-----7-----7-|
-9---0-----0-----9---0-----0-----|
---------------------------------|
---------------------------------|
---------------------------------|

riff 2: chorus
-2-2-2-2-2-2--3-3-3--------------------|-5-5-5-5--3-3-3--2-2-2-2-2-2-|
-3-3-3-3-3-3--0-0-0--------------------|-5-5-5-5--3-3-3--2-2-2-2-2-2-|
-4-4-4-4-4-4--0-0-0--------------------|-7-7-7-7--5-5-5--4-4-4-4-4-4-|
-4-4-4-4-4-4--0-0-0--2-2-2-2-2-2-2-2-2-|-7-7-7-7--5-5-5--4-4-4-4-4-4-|
-2-2-2-2-2-2--2-2-2--2-2-2-2-2-2-2-2-2-|-5-5-5-5--3-3-3--2-2-2-2-2-2-|
-2-2-2-2-2-2--3-3-3--0-0-0-0-0-0-0-0-0-|-5-5-5-5--3-3-3--2-2-2-2-2-2-|
|______________________________x3______|

or you could do an easier version, which I myself find to work very well as a substitute...
same strumming pattern, but substitute these chords for the chords above

-2--3-----5---3---2-|
-3--0-----5---3---2-|
-4--0-----7---5---4-|
-4--0--2--7---5---4-|  above chords
-2--2--2--5---3---2-|
-2--3--0--5---3---2-|


The verses are basically the same melody/strumming pattern, with these chords:
(Starts at 'we are trembling...')
 Am  G   Fmaj7
-0---3---0-|
-1---0---1-|
-2---0---2-|
-2---0---3-|
-0---2---3-|
-----3-----|
/ /// /// /// /   // // // / //
Am      G     Fmaj7        G
/ /// /// /// /   // // // / //
Am      G     Fmaj7


The chorus has both Riff 1 and Riff 2






C O M A  W H I T E :
(sorry for the extra detail on this song, but it's my favourite Manson song, and I spent
a long time getting it as perfect as it can be. I know the solo isn't EXACTLY right, but
it's as so very close as I could get it.

riff 1: x6
-----------------------------------------------------------------------------|
---0---0---0---0-1-1---0---0---0---0-1-1---0---0---0---0-1-1-3-3-3-3-1-1-0-0-|
-2---2---2---2-------2---2---2---2-------2---2---2---2-----------------------|
-----------------------------------------------------------------------------|
-----------------------------------------------------------------------------|
-----------------------------------------------------------------------------|

riff 2:
-------------------------------------------------------------------------|
-------------------------------------------------------------------------|
-------------------------------------------------------------------------| x2
-7-7-7-7-7-7-7-7-10-10-10-10-10-10-10-10-5-5-5-5-5-5-5-5-5-3-3-3-3-3-3-3-|
-7-7-7-7-7-7-7-7-10-10-10-10-10-10-10-10-5-5-5-5-5-5-5-5-5-3-3-3-3-3-3-3-|
-5-5-5-5-5-5-5-5--8--8--8--8--8--8--8--8-3-3-3-3-3-3-3-3-3-1-1-1-1-1-1-1-|
                                                                         |
-----7-5-----7----------7--5--------7--------7-5-----7-------7-5-----5---|
-8----------------8----------------------8---------------8---------------|
-------------------------------------------------------------------------| keys
-------------------------------------------------------------------------|
-------------------------------------------------------------------------|
-------------------------------------------------------------------------|

riff 3:
--------------------------------------------------------------|
--------------------------------------------------------------|
--------------------------------------------------------------|
-7-7-7-7-10-12\6--6-6-6-10-12-7-7-7-7-12-10--3--3-3-3-3-3-3-3-|
-7-7-7-7-10-12\6--6-6-6-10-12-7-7-7-7-12-10--3--3-3-3-3-3-3-3-|
-5-5-5-5--8-10\4--4-4-4--8-10-5-5-5-5-10--8--1--1-1-1-1-1-1-1-|

--------------------------------------------------------------------------|
-10----10-------12-11-10--------------12-11\10-10----10-------13-12-11-10-|
----12----12-12------------10-11-10-9-------------12----12-12-------------|
--------------------------------------------------------------------------|
--------------------------------------------------------------------------|
--------------------------------------------------------------------------|

-----------------|
-----------------|
10-10-10-9-9-9-9-|
-----------------|
-----------------|
-----------------|

riff 1 (x5 instead of x6)
riff 2 twice

riff 4: three times
------------------------------------------------------------|
------------------------------------------------------------|
------------------------------------------------------------|
------------------------------------------------------------|
------------------------------------------------------------|
-5-5-5-5-8-10-4--4-4-4-8-10-5--5-5-5-10-8--1--1-1-1-1-1-1-1-|

--------------------------------------------------------------------------|
-10----10-------12-11-10--------------12-11\10-10----10-------13-12-11-10-|
----12----12-12------------10-11-10-9-------------12----12-12-------------|
--------------------------------------------------------------------------|
--------------------------------------------------------------------------|
--------------------------------------------------------------------------|

-----------------|
-----------------|
10-10-10-9-9-9-9-|
-----------------|
-----------------|
-----------------|


pause for Riff 2s keys to do the measure once

riff 5:
----------------------------------------------------------------------------|
----------------------------------------------------------------------------|
----------------------------------------------------------------------------|
-------------------------------------------7-7-7-7-7-7-7-7------------------|
-7-7-7-7-7-7-7-7--10-10-10-10-10-10-10-10--5-5-5-5-5-5-5-5--3-3-3-3-3-3-3-3-|
-5-5-5-5-5-5-5-5---8--8--8--8--8--8--8--8-------------------1-1-1-1-1-1-1-1-|

Riff 2 (with guitar 2 actually a guitar) twice


COMA WHITE Bass:
riff 1A:
---0---0---0---0-1-1---0---0---0---0-1-1---0---0---0---0-1-1-3-3-3-3-1-1-0-0-|
-2---2---2---2-------2---2---2---2-------2---2---2---2-----------------------|
                                                                             |
-----------------------------------------------------------------------------|
-----------------------------------------------------------------------------|
---------------------3-------------------------------------------------------|
-5---------------------------------------3-------------------1---------------|
|________________________________________________________________________x5__|


Riff 1B:
---0---0---0---0-1-1---0---0---0---0-1-1---0---0---0---0-1-1-3-3-3-3-1-1-0-0-|
-2---2---2---2-------2---2---2---2-------2---2---2---2-----------------------|
                                                                             |
-----------------------------------------------------------------------------|
-----------------------------------------------------------------------------|
---------------------3-------------------------------------------------------|
-5---------------------------------------3-------------------1-1-1-1-1-1-1-1-|

riff 2:
--------------------------------------------------------------------|
--------------------------------------------------------------------| x2
------------------3-3-3-3-3-3-3-3-----------------------------------|
-5-5-5-5-5-5-5-5-------------------3-3-3-3-3-3-3-3--1-1-1-1-1-1-1-1-|

riff 3:
------------------------------------------------------------|
------------------------------------------------------------|
---------3-5-3----------3-5-----------5-3-------------------|
-5-5-5-5-------4--4-4-4------5--5-5-5------0--1-1-1-1-1-1-1-|

Riff 1A (x4 instead of x5)
Riff 1B
Riff 2 twice
pause for gtr post-chorus (bass riff 3 twice)
Riff 3
Riff 2 three times
Comments