Marilyn Manson - Mechanical Animals Chords & Tabs

 

Mechanical Animals Chords & Tabs

Marilyn Manson Chords & Tabs

Version: 3 Type: Bass Tab 0 ratings
1 star 2 stars 3 stars 4 stars 5 stars
comments

Mechanical Animals Bass Tab

Song: Mechanical Animals
Artist: Marilyn Manson
Album: Mechanical Animals (1998)
Bassist: Twiggy Ramirez
Tuning: Standard (EADG)
tabbed by: ames

One of my favorite Manson songs and it has a really cool bassline.

INTRO PART 1: 0:00-0:08

G|---------------------------|
D|---------------------------|
A|--5/7--7-7-----------------|  x2
E|-------------0--0-0/7/12---|

INTRO PART 2: 0:08-0:15

G|---------------------------------------------------------|
D|--------5-----5------------------7/9\7-------------------|
A|--3-3------3-----3-3--3-3-3--5-5---------5-5--7-7-7-7\---|
E|---------------------------------------------------------|

VERSE:

G|---------------------------------------|
D|-----------------------5-5-5-4-2-------|
A|---------------------------------2-----| x2
E|--0--12-12-12\--0-0--------------------|

G|-----------------------------------------------------------|
D|-----------------------------------------------------------|
A|--3--3-3-3--3-3--3-3-3--3-3-3-2--2-2-2--2/5--5--5--5-5-5---|
E|-----------------------------------------------------------|

repeat until chorus
[ Tab from: http://www.guitartabs.cc/tabs/m/marilyn_manson/mechanical_animals_btab_ver_3.html ]
CHORUS: "Iiiiiiii am never gonna be the one for you.."
G|------------------------------------------------------------------|
D|------------------------------------------------------------------|
A|------------------------------------------------------------------|
E|--3--3--3--3-3--3-3-3--3-3-3-2--2-2-2--2/14--14--14--14-14-14-----|

G|----------------------------------------------------------|
D|--------5/7\5--------5------------5/7\5-------------------|
A|--3--3---------3--3-----3---3--3---------3--3--3----------|
E|--------------------------------------------------0/10\---|

Twiggy doesn't play anything during the post-chorus and the I'm Not Mechanical part. The
verses are the same throughout the rest of the song and Twiggy does minor things here
and there but that's basically it until the outro.

OUTRO: 3:45

Here is where other people go a little wrong in their tabs for the outro. Contrary to
popular opinion, in the album version, Twiggy doesn't play the same riff as the guitar. A
little messing around and close listening I figured out what he was playing and I'm 
99.9% positive this is it.


G|-------------------------|-----------------------------------|
D|-------------------------|-----------------------------------|
A|-------------------------|-----9------9------8-8-8-8-8-8-----|
E|--0/12-12-12-12-12-12----|--2/-----2/-----1/-----------------|

I'll add the live outro. It's easier if you have trouble sliding and it's just a little
variation that Twiggy plays of the guitar part and the bass.

LIVE OUTRO:

G|-------------------------|-----------------------------|
D|-------------------------|-----------------------------|
A|-------------------------|-----------------------------|
E|--0/12-12-12-12-12-12----|--2--2-2-2-2-2-1--1-1-1-1-1--|
Comments